  0
SECTION
  2
BLOCKS
  0
ENDSEC
  0
SECTION
  2
ENTITIES
  0
LINE
  8
0
 10
230
 20
211
 11
0
 21
211
  0
LINE
  8
0
 10
0
 20
211
 11
0
 21
0
  0
LINE
  8
0
 10
0
 20
0
 11
230
 21
0
  0
LINE
  8
0
 10
230
 20
0
 11
230
 21
211
  0
LINE
  8
0
 10
19.7549
 20
188.512
 11
19.5123
 21
188.548
  0
LINE
  8
0
 10
19.5123
 20
188.548
 11
19.2743
 21
188.608
  0
LINE
  8
0
 10
19.2743
 20
188.608
 11
19.0433
 21
188.69
  0
LINE
  8
0
 10
19.0433
 20
188.69
 11
18.8215
 21
188.795
  0
LINE
  8
0
 10
18.8215
 20
188.795
 11
18.6111
 21
188.921
  0
LINE
  8
0
 10
18.6111
 20
188.921
 11
18.414
 21
189.067
  0
LINE
  8
0
 10
18.414
 20
189.067
 11
18.2322
 21
189.232
  0
LINE
  8
0
 10
18.2322
 20
189.232
 11
18.0675
 21
189.414
  0
LINE
  8
0
 10
18.0675
 20
189.414
 11
17.9213
 21
189.611
  0
LINE
  8
0
 10
17.9213
 20
189.611
 11
17.7952
 21
189.822
  0
LINE
  8
0
 10
17.7952
 20
189.822
 11
17.6903
 21
190.043
  0
LINE
  8
0
 10
17.6903
 20
190.043
 11
17.6076
 21
190.274
  0
LINE
  8
0
 10
17.6076
 20
190.274
 11
17.548
 21
190.512
  0
LINE
  8
0
 10
17.548
 20
190.512
 11
17.512
 21
190.755
  0
LINE
  8
0
 10
17.512
 20
190.755
 11
17.5
 21
191
  0
LINE
  8
0
 10
17.5
 20
191
 11
17.512
 21
191.245
  0
LINE
  8
0
 10
17.512
 20
191.245
 11
17.548
 21
191.488
  0
LINE
  8
0
 10
17.548
 20
191.488
 11
17.6076
 21
191.726
  0
LINE
  8
0
 10
17.6076
 20
191.726
 11
17.6903
 21
191.957
  0
LINE
  8
0
 10
17.6903
 20
191.957
 11
17.7952
 21
192.178
  0
LINE
  8
0
 10
17.7952
 20
192.178
 11
17.9213
 21
192.389
  0
LINE
  8
0
 10
17.9213
 20
192.389
 11
18.0675
 21
192.586
  0
LINE
  8
0
 10
18.0675
 20
192.586
 11
18.2322
 21
192.768
  0
LINE
  8
0
 10
18.2322
 20
192.768
 11
18.414
 21
192.933
  0
LINE
  8
0
 10
18.414
 20
192.933
 11
18.6111
 21
193.079
  0
LINE
  8
0
 10
18.6111
 20
193.079
 11
18.8215
 21
193.205
  0
LINE
  8
0
 10
18.8215
 20
193.205
 11
19.0433
 21
193.31
  0
LINE
  8
0
 10
19.0433
 20
193.31
 11
19.2743
 21
193.392
  0
LINE
  8
0
 10
19.2743
 20
193.392
 11
19.5123
 21
193.452
  0
LINE
  8
0
 10
19.5123
 20
193.452
 11
19.7549
 21
193.488
  0
LINE
  8
0
 10
19.7549
 20
193.488
 11
20
 21
193.5
  0
LINE
  8
0
 10
20
 20
193.5
 11
20.245
 21
193.488
  0
LINE
  8
0
 10
20.245
 20
193.488
 11
20.4877
 21
193.452
  0
LINE
  8
0
 10
20.4877
 20
193.452
 11
20.7257
 21
193.392
  0
LINE
  8
0
 10
20.7257
 20
193.392
 11
20.9567
 21
193.31
  0
LINE
  8
0
 10
20.9567
 20
193.31
 11
21.1785
 21
193.205
  0
LINE
  8
0
 10
21.1785
 20
193.205
 11
21.3889
 21
193.079
  0
LINE
  8
0
 10
21.3889
 20
193.079
 11
21.586
 21
192.933
  0
LINE
  8
0
 10
21.586
 20
192.933
 11
21.7678
 21
192.768
  0
LINE
  8
0
 10
21.7678
 20
192.768
 11
21.9325
 21
192.586
  0
LINE
  8
0
 10
21.9325
 20
192.586
 11
22.0787
 21
192.389
  0
LINE
  8
0
 10
22.0787
 20
192.389
 11
22.2048
 21
192.178
  0
LINE
  8
0
 10
22.2048
 20
192.178
 11
22.3097
 21
191.957
  0
LINE
  8
0
 10
22.3097
 20
191.957
 11
22.3923
 21
191.726
  0
LINE
  8
0
 10
22.3923
 20
191.726
 11
22.452
 21
191.488
  0
LINE
  8
0
 10
22.452
 20
191.488
 11
22.488
 21
191.245
  0
LINE
  8
0
 10
22.488
 20
191.245
 11
22.5
 21
191
  0
LINE
  8
0
 10
22.5
 20
191
 11
22.488
 21
190.755
  0
LINE
  8
0
 10
22.488
 20
190.755
 11
22.452
 21
190.512
  0
LINE
  8
0
 10
22.452
 20
190.512
 11
22.3923
 21
190.274
  0
LINE
  8
0
 10
22.3923
 20
190.274
 11
22.3097
 21
190.043
  0
LINE
  8
0
 10
22.3097
 20
190.043
 11
22.2048
 21
189.822
  0
LINE
  8
0
 10
22.2048
 20
189.822
 11
22.0787
 21
189.611
  0
LINE
  8
0
 10
22.0787
 20
189.611
 11
21.9325
 21
189.414
  0
LINE
  8
0
 10
21.9325
 20
189.414
 11
21.7678
 21
189.232
  0
LINE
  8
0
 10
21.7678
 20
189.232
 11
21.586
 21
189.067
  0
LINE
  8
0
 10
21.586
 20
189.067
 11
21.3889
 21
188.921
  0
LINE
  8
0
 10
21.3889
 20
188.921
 11
21.1785
 21
188.795
  0
LINE
  8
0
 10
21.1785
 20
188.795
 11
20.9567
 21
188.69
  0
LINE
  8
0
 10
20.9567
 20
188.69
 11
20.7257
 21
188.608
  0
LINE
  8
0
 10
20.7257
 20
188.608
 11
20.4877
 21
188.548
  0
LINE
  8
0
 10
20.4877
 20
188.548
 11
20.245
 21
188.512
  0
LINE
  8
0
 10
20.245
 20
188.512
 11
20
 21
188.5
  0
LINE
  8
0
 10
20
 20
188.5
 11
19.7549
 21
188.512
  0
LINE
  8
0
 10
209.755
 20
188.512
 11
209.512
 21
188.548
  0
LINE
  8
0
 10
209.512
 20
188.548
 11
209.274
 21
188.608
  0
LINE
  8
0
 10
209.274
 20
188.608
 11
209.043
 21
188.69
  0
LINE
  8
0
 10
209.043
 20
188.69
 11
208.822
 21
188.795
  0
LINE
  8
0
 10
208.822
 20
188.795
 11
208.611
 21
188.921
  0
LINE
  8
0
 10
208.611
 20
188.921
 11
208.414
 21
189.067
  0
LINE
  8
0
 10
208.414
 20
189.067
 11
208.232
 21
189.232
  0
LINE
  8
0
 10
208.232
 20
189.232
 11
208.067
 21
189.414
  0
LINE
  8
0
 10
208.067
 20
189.414
 11
207.921
 21
189.611
  0
LINE
  8
0
 10
207.921
 20
189.611
 11
207.795
 21
189.822
  0
LINE
  8
0
 10
207.795
 20
189.822
 11
207.69
 21
190.043
  0
LINE
  8
0
 10
207.69
 20
190.043
 11
207.608
 21
190.274
  0
LINE
  8
0
 10
207.608
 20
190.274
 11
207.548
 21
190.512
  0
LINE
  8
0
 10
207.548
 20
190.512
 11
207.512
 21
190.755
  0
LINE
  8
0
 10
207.512
 20
190.755
 11
207.5
 21
191
  0
LINE
  8
0
 10
207.5
 20
191
 11
207.512
 21
191.245
  0
LINE
  8
0
 10
207.512
 20
191.245
 11
207.548
 21
191.488
  0
LINE
  8
0
 10
207.548
 20
191.488
 11
207.608
 21
191.726
  0
LINE
  8
0
 10
207.608
 20
191.726
 11
207.69
 21
191.957
  0
LINE
  8
0
 10
207.69
 20
191.957
 11
207.795
 21
192.178
  0
LINE
  8
0
 10
207.795
 20
192.178
 11
207.921
 21
192.389
  0
LINE
  8
0
 10
207.921
 20
192.389
 11
208.067
 21
192.586
  0
LINE
  8
0
 10
208.067
 20
192.586
 11
208.232
 21
192.768
  0
LINE
  8
0
 10
208.232
 20
192.768
 11
208.414
 21
192.933
  0
LINE
  8
0
 10
208.414
 20
192.933
 11
208.611
 21
193.079
  0
LINE
  8
0
 10
208.611
 20
193.079
 11
208.822
 21
193.205
  0
LINE
  8
0
 10
208.822
 20
193.205
 11
209.043
 21
193.31
  0
LINE
  8
0
 10
209.043
 20
193.31
 11
209.274
 21
193.392
  0
LINE
  8
0
 10
209.274
 20
193.392
 11
209.512
 21
193.452
  0
LINE
  8
0
 10
209.512
 20
193.452
 11
209.755
 21
193.488
  0
LINE
  8
0
 10
209.755
 20
193.488
 11
210
 21
193.5
  0
LINE
  8
0
 10
210
 20
193.5
 11
210.245
 21
193.488
  0
LINE
  8
0
 10
210.245
 20
193.488
 11
210.488
 21
193.452
  0
LINE
  8
0
 10
210.488
 20
193.452
 11
210.726
 21
193.392
  0
LINE
  8
0
 10
210.726
 20
193.392
 11
210.957
 21
193.31
  0
LINE
  8
0
 10
210.957
 20
193.31
 11
211.178
 21
193.205
  0
LINE
  8
0
 10
211.178
 20
193.205
 11
211.389
 21
193.079
  0
LINE
  8
0
 10
211.389
 20
193.079
 11
211.586
 21
192.933
  0
LINE
  8
0
 10
211.586
 20
192.933
 11
211.768
 21
192.768
  0
LINE
  8
0
 10
211.768
 20
192.768
 11
211.933
 21
192.586
  0
LINE
  8
0
 10
211.933
 20
192.586
 11
212.079
 21
192.389
  0
LINE
  8
0
 10
212.079
 20
192.389
 11
212.205
 21
192.178
  0
LINE
  8
0
 10
212.205
 20
192.178
 11
212.31
 21
191.957
  0
LINE
  8
0
 10
212.31
 20
191.957
 11
212.392
 21
191.726
  0
LINE
  8
0
 10
212.392
 20
191.726
 11
212.452
 21
191.488
  0
LINE
  8
0
 10
212.452
 20
191.488
 11
212.488
 21
191.245
  0
LINE
  8
0
 10
212.488
 20
191.245
 11
212.5
 21
191
  0
LINE
  8
0
 10
212.5
 20
191
 11
212.488
 21
190.755
  0
LINE
  8
0
 10
212.488
 20
190.755
 11
212.452
 21
190.512
  0
LINE
  8
0
 10
212.452
 20
190.512
 11
212.392
 21
190.274
  0
LINE
  8
0
 10
212.392
 20
190.274
 11
212.31
 21
190.043
  0
LINE
  8
0
 10
212.31
 20
190.043
 11
212.205
 21
189.822
  0
LINE
  8
0
 10
212.205
 20
189.822
 11
212.079
 21
189.611
  0
LINE
  8
0
 10
212.079
 20
189.611
 11
211.933
 21
189.414
  0
LINE
  8
0
 10
211.933
 20
189.414
 11
211.768
 21
189.232
  0
LINE
  8
0
 10
211.768
 20
189.232
 11
211.586
 21
189.067
  0
LINE
  8
0
 10
211.586
 20
189.067
 11
211.389
 21
188.921
  0
LINE
  8
0
 10
211.389
 20
188.921
 11
211.178
 21
188.795
  0
LINE
  8
0
 10
211.178
 20
188.795
 11
210.957
 21
188.69
  0
LINE
  8
0
 10
210.957
 20
188.69
 11
210.726
 21
188.608
  0
LINE
  8
0
 10
210.726
 20
188.608
 11
210.488
 21
188.548
  0
LINE
  8
0
 10
210.488
 20
188.548
 11
210.245
 21
188.512
  0
LINE
  8
0
 10
210.245
 20
188.512
 11
210
 21
188.5
  0
LINE
  8
0
 10
210
 20
188.5
 11
209.755
 21
188.512
  0
LINE
  8
0
 10
4.87747
 20
159.756
 11
4.75613
 21
159.774
  0
LINE
  8
0
 10
4.75613
 20
159.774
 11
4.63713
 21
159.804
  0
LINE
  8
0
 10
4.63713
 20
159.804
 11
4.52164
 21
159.845
  0
LINE
  8
0
 10
4.52164
 20
159.845
 11
4.41075
 21
159.898
  0
LINE
  8
0
 10
4.41075
 20
159.898
 11
4.30553
 21
159.961
  0
LINE
  8
0
 10
4.30553
 20
159.961
 11
4.207
 21
160.034
  0
LINE
  8
0
 10
4.207
 20
160.034
 11
4.1161
 21
160.116
  0
LINE
  8
0
 10
4.1161
 20
160.116
 11
4.03372
 21
160.207
  0
LINE
  8
0
 10
4.03372
 20
160.207
 11
3.96066
 21
160.306
  0
LINE
  8
0
 10
3.96066
 20
160.306
 11
3.8976
 21
160.411
  0
LINE
  8
0
 10
3.8976
 20
160.411
 11
3.84514
 21
160.522
  0
LINE
  8
0
 10
3.84514
 20
160.522
 11
3.80382
 21
160.637
  0
LINE
  8
0
 10
3.80382
 20
160.637
 11
3.77402
 21
160.756
  0
LINE
  8
0
 10
3.77402
 20
160.756
 11
3.75601
 21
160.877
  0
LINE
  8
0
 10
3.75601
 20
160.877
 11
3.75
 21
161
  0
LINE
  8
0
 10
3.75
 20
161
 11
3.75601
 21
161.123
  0
LINE
  8
0
 10
3.75601
 20
161.123
 11
3.77402
 21
161.244
  0
LINE
  8
0
 10
3.77402
 20
161.244
 11
3.80382
 21
161.363
  0
LINE
  8
0
 10
3.80382
 20
161.363
 11
3.84514
 21
161.478
  0
LINE
  8
0
 10
3.84514
 20
161.478
 11
3.8976
 21
161.589
  0
LINE
  8
0
 10
3.8976
 20
161.589
 11
3.96066
 21
161.694
  0
LINE
  8
0
 10
3.96066
 20
161.694
 11
4.03372
 21
161.793
  0
LINE
  8
0
 10
4.03372
 20
161.793
 11
4.1161
 21
161.884
  0
LINE
  8
0
 10
4.1161
 20
161.884
 11
4.207
 21
161.966
  0
LINE
  8
0
 10
4.207
 20
161.966
 11
4.30553
 21
162.039
  0
LINE
  8
0
 10
4.30553
 20
162.039
 11
4.41075
 21
162.102
  0
LINE
  8
0
 10
4.41075
 20
162.102
 11
4.52164
 21
162.155
  0
LINE
  8
0
 10
4.52164
 20
162.155
 11
4.63713
 21
162.196
  0
LINE
  8
0
 10
4.63713
 20
162.196
 11
4.75613
 21
162.226
  0
LINE
  8
0
 10
4.75613
 20
162.226
 11
4.87747
 21
162.244
  0
LINE
  8
0
 10
4.87747
 20
162.244
 11
5
 21
162.25
  0
LINE
  8
0
 10
5
 20
162.25
 11
5.12251
 21
162.244
  0
LINE
  8
0
 10
5.12251
 20
162.244
 11
5.24385
 21
162.226
  0
LINE
  8
0
 10
5.24385
 20
162.226
 11
5.36285
 21
162.196
  0
LINE
  8
0
 10
5.36285
 20
162.196
 11
5.47835
 21
162.155
  0
LINE
  8
0
 10
5.47835
 20
162.155
 11
5.58923
 21
162.102
  0
LINE
  8
0
 10
5.58923
 20
162.102
 11
5.69446
 21
162.039
  0
LINE
  8
0
 10
5.69446
 20
162.039
 11
5.79298
 21
161.966
  0
LINE
  8
0
 10
5.79298
 20
161.966
 11
5.88388
 21
161.884
  0
LINE
  8
0
 10
5.88388
 20
161.884
 11
5.96626
 21
161.793
  0
LINE
  8
0
 10
5.96626
 20
161.793
 11
6.03932
 21
161.694
  0
LINE
  8
0
 10
6.03932
 20
161.694
 11
6.10239
 21
161.589
  0
LINE
  8
0
 10
6.10239
 20
161.589
 11
6.15485
 21
161.478
  0
LINE
  8
0
 10
6.15485
 20
161.478
 11
6.19617
 21
161.363
  0
LINE
  8
0
 10
6.19617
 20
161.363
 11
6.22597
 21
161.244
  0
LINE
  8
0
 10
6.22597
 20
161.244
 11
6.24397
 21
161.123
  0
LINE
  8
0
 10
6.24397
 20
161.123
 11
6.25
 21
161
  0
LINE
  8
0
 10
6.25
 20
161
 11
6.24397
 21
160.877
  0
LINE
  8
0
 10
6.24397
 20
160.877
 11
6.22597
 21
160.756
  0
LINE
  8
0
 10
6.22597
 20
160.756
 11
6.19617
 21
160.637
  0
LINE
  8
0
 10
6.19617
 20
160.637
 11
6.15485
 21
160.522
  0
LINE
  8
0
 10
6.15485
 20
160.522
 11
6.10239
 21
160.411
  0
LINE
  8
0
 10
6.10239
 20
160.411
 11
6.03932
 21
160.306
  0
LINE
  8
0
 10
6.03932
 20
160.306
 11
5.96626
 21
160.207
  0
LINE
  8
0
 10
5.96626
 20
160.207
 11
5.88388
 21
160.116
  0
LINE
  8
0
 10
5.88388
 20
160.116
 11
5.79298
 21
160.034
  0
LINE
  8
0
 10
5.79298
 20
160.034
 11
5.69446
 21
159.961
  0
LINE
  8
0
 10
5.69446
 20
159.961
 11
5.58923
 21
159.898
  0
LINE
  8
0
 10
5.58923
 20
159.898
 11
5.47835
 21
159.845
  0
LINE
  8
0
 10
5.47835
 20
159.845
 11
5.36285
 21
159.804
  0
LINE
  8
0
 10
5.36285
 20
159.804
 11
5.24385
 21
159.774
  0
LINE
  8
0
 10
5.24385
 20
159.774
 11
5.12251
 21
159.756
  0
LINE
  8
0
 10
5.12251
 20
159.756
 11
5
 21
159.75
  0
LINE
  8
0
 10
5
 20
159.75
 11
4.87747
 21
159.756
  0
LINE
  8
0
 10
224.877
 20
159.756
 11
224.756
 21
159.774
  0
LINE
  8
0
 10
224.756
 20
159.774
 11
224.637
 21
159.804
  0
LINE
  8
0
 10
224.637
 20
159.804
 11
224.522
 21
159.845
  0
LINE
  8
0
 10
224.522
 20
159.845
 11
224.411
 21
159.898
  0
LINE
  8
0
 10
224.411
 20
159.898
 11
224.306
 21
159.961
  0
LINE
  8
0
 10
224.306
 20
159.961
 11
224.207
 21
160.034
  0
LINE
  8
0
 10
224.207
 20
160.034
 11
224.116
 21
160.116
  0
LINE
  8
0
 10
224.116
 20
160.116
 11
224.034
 21
160.207
  0
LINE
  8
0
 10
224.034
 20
160.207
 11
223.961
 21
160.306
  0
LINE
  8
0
 10
223.961
 20
160.306
 11
223.898
 21
160.411
  0
LINE
  8
0
 10
223.898
 20
160.411
 11
223.845
 21
160.522
  0
LINE
  8
0
 10
223.845
 20
160.522
 11
223.804
 21
160.637
  0
LINE
  8
0
 10
223.804
 20
160.637
 11
223.774
 21
160.756
  0
LINE
  8
0
 10
223.774
 20
160.756
 11
223.756
 21
160.877
  0
LINE
  8
0
 10
223.756
 20
160.877
 11
223.75
 21
161
  0
LINE
  8
0
 10
223.75
 20
161
 11
223.756
 21
161.123
  0
LINE
  8
0
 10
223.756
 20
161.123
 11
223.774
 21
161.244
  0
LINE
  8
0
 10
223.774
 20
161.244
 11
223.804
 21
161.363
  0
LINE
  8
0
 10
223.804
 20
161.363
 11
223.845
 21
161.478
  0
LINE
  8
0
 10
223.845
 20
161.478
 11
223.898
 21
161.589
  0
LINE
  8
0
 10
223.898
 20
161.589
 11
223.961
 21
161.694
  0
LINE
  8
0
 10
223.961
 20
161.694
 11
224.034
 21
161.793
  0
LINE
  8
0
 10
224.034
 20
161.793
 11
224.116
 21
161.884
  0
LINE
  8
0
 10
224.116
 20
161.884
 11
224.207
 21
161.966
  0
LINE
  8
0
 10
224.207
 20
161.966
 11
224.306
 21
162.039
  0
LINE
  8
0
 10
224.306
 20
162.039
 11
224.411
 21
162.102
  0
LINE
  8
0
 10
224.411
 20
162.102
 11
224.522
 21
162.155
  0
LINE
  8
0
 10
224.522
 20
162.155
 11
224.637
 21
162.196
  0
LINE
  8
0
 10
224.637
 20
162.196
 11
224.756
 21
162.226
  0
LINE
  8
0
 10
224.756
 20
162.226
 11
224.877
 21
162.244
  0
LINE
  8
0
 10
224.877
 20
162.244
 11
225
 21
162.25
  0
LINE
  8
0
 10
225
 20
162.25
 11
225.123
 21
162.244
  0
LINE
  8
0
 10
225.123
 20
162.244
 11
225.244
 21
162.226
  0
LINE
  8
0
 10
225.244
 20
162.226
 11
225.363
 21
162.196
  0
LINE
  8
0
 10
225.363
 20
162.196
 11
225.478
 21
162.155
  0
LINE
  8
0
 10
225.478
 20
162.155
 11
225.589
 21
162.102
  0
LINE
  8
0
 10
225.589
 20
162.102
 11
225.694
 21
162.039
  0
LINE
  8
0
 10
225.694
 20
162.039
 11
225.793
 21
161.966
  0
LINE
  8
0
 10
225.793
 20
161.966
 11
225.884
 21
161.884
  0
LINE
  8
0
 10
225.884
 20
161.884
 11
225.966
 21
161.793
  0
LINE
  8
0
 10
225.966
 20
161.793
 11
226.039
 21
161.694
  0
LINE
  8
0
 10
226.039
 20
161.694
 11
226.102
 21
161.589
  0
LINE
  8
0
 10
226.102
 20
161.589
 11
226.155
 21
161.478
  0
LINE
  8
0
 10
226.155
 20
161.478
 11
226.196
 21
161.363
  0
LINE
  8
0
 10
226.196
 20
161.363
 11
226.226
 21
161.244
  0
LINE
  8
0
 10
226.226
 20
161.244
 11
226.244
 21
161.123
  0
LINE
  8
0
 10
226.244
 20
161.123
 11
226.25
 21
161
  0
LINE
  8
0
 10
226.25
 20
161
 11
226.244
 21
160.877
  0
LINE
  8
0
 10
226.244
 20
160.877
 11
226.226
 21
160.756
  0
LINE
  8
0
 10
226.226
 20
160.756
 11
226.196
 21
160.637
  0
LINE
  8
0
 10
226.196
 20
160.637
 11
226.155
 21
160.522
  0
LINE
  8
0
 10
226.155
 20
160.522
 11
226.102
 21
160.411
  0
LINE
  8
0
 10
226.102
 20
160.411
 11
226.039
 21
160.306
  0
LINE
  8
0
 10
226.039
 20
160.306
 11
225.966
 21
160.207
  0
LINE
  8
0
 10
225.966
 20
160.207
 11
225.884
 21
160.116
  0
LINE
  8
0
 10
225.884
 20
160.116
 11
225.793
 21
160.034
  0
LINE
  8
0
 10
225.793
 20
160.034
 11
225.694
 21
159.961
  0
LINE
  8
0
 10
225.694
 20
159.961
 11
225.589
 21
159.898
  0
LINE
  8
0
 10
225.589
 20
159.898
 11
225.478
 21
159.845
  0
LINE
  8
0
 10
225.478
 20
159.845
 11
225.363
 21
159.804
  0
LINE
  8
0
 10
225.363
 20
159.804
 11
225.244
 21
159.774
  0
LINE
  8
0
 10
225.244
 20
159.774
 11
225.123
 21
159.756
  0
LINE
  8
0
 10
225.123
 20
159.756
 11
225
 21
159.75
  0
LINE
  8
0
 10
225
 20
159.75
 11
224.877
 21
159.756
  0
LINE
  8
0
 10
86.3432
 20
83.4077
 11
86.1879
 21
83.4307
  0
LINE
  8
0
 10
86.1879
 20
83.4307
 11
86.0356
 21
83.4689
  0
LINE
  8
0
 10
86.0356
 20
83.4689
 11
85.8877
 21
83.5218
  0
LINE
  8
0
 10
85.8877
 20
83.5218
 11
85.7458
 21
83.5889
  0
LINE
  8
0
 10
85.7458
 20
83.5889
 11
85.6111
 21
83.6696
  0
LINE
  8
0
 10
85.6111
 20
83.6696
 11
85.485
 21
83.7632
  0
LINE
  8
0
 10
85.485
 20
83.7632
 11
85.3686
 21
83.8686
  0
LINE
  8
0
 10
85.3686
 20
83.8686
 11
85.2632
 21
83.985
  0
LINE
  8
0
 10
85.2632
 20
83.985
 11
85.1697
 21
84.1111
  0
LINE
  8
0
 10
85.1697
 20
84.1111
 11
85.0889
 21
84.2458
  0
LINE
  8
0
 10
85.0889
 20
84.2458
 11
85.0218
 21
84.3877
  0
LINE
  8
0
 10
85.0218
 20
84.3877
 11
84.9689
 21
84.5355
  0
LINE
  8
0
 10
84.9689
 20
84.5355
 11
84.9308
 21
84.6879
  0
LINE
  8
0
 10
84.9308
 20
84.6879
 11
84.9077
 21
84.8432
  0
LINE
  8
0
 10
84.9077
 20
84.8432
 11
84.9
 21
85
  0
LINE
  8
0
 10
84.9
 20
85
 11
84.9077
 21
85.1568
  0
LINE
  8
0
 10
84.9077
 20
85.1568
 11
84.9308
 21
85.3121
  0
LINE
  8
0
 10
84.9308
 20
85.3121
 11
84.9689
 21
85.4644
  0
LINE
  8
0
 10
84.9689
 20
85.4644
 11
85.0218
 21
85.6123
  0
LINE
  8
0
 10
85.0218
 20
85.6123
 11
85.0889
 21
85.7542
  0
LINE
  8
0
 10
85.0889
 20
85.7542
 11
85.1697
 21
85.8889
  0
LINE
  8
0
 10
85.1697
 20
85.8889
 11
85.2632
 21
86.015
  0
LINE
  8
0
 10
85.2632
 20
86.015
 11
85.3686
 21
86.1314
  0
LINE
  8
0
 10
85.3686
 20
86.1314
 11
85.485
 21
86.2368
  0
LINE
  8
0
 10
85.485
 20
86.2368
 11
85.6111
 21
86.3303
  0
LINE
  8
0
 10
85.6111
 20
86.3303
 11
85.7458
 21
86.4111
  0
LINE
  8
0
 10
85.7458
 20
86.4111
 11
85.8877
 21
86.4782
  0
LINE
  8
0
 10
85.8877
 20
86.4782
 11
86.0356
 21
86.5311
  0
LINE
  8
0
 10
86.0356
 20
86.5311
 11
86.1879
 21
86.5692
  0
LINE
  8
0
 10
86.1879
 20
86.5692
 11
86.3432
 21
86.5923
  0
LINE
  8
0
 10
86.3432
 20
86.5923
 11
86.5
 21
86.6
  0
LINE
  8
0
 10
86.5
 20
86.6
 11
86.6568
 21
86.5923
  0
LINE
  8
0
 10
86.6568
 20
86.5923
 11
86.8121
 21
86.5692
  0
LINE
  8
0
 10
86.8121
 20
86.5692
 11
86.9644
 21
86.5311
  0
LINE
  8
0
 10
86.9644
 20
86.5311
 11
87.1123
 21
86.4782
  0
LINE
  8
0
 10
87.1123
 20
86.4782
 11
87.2542
 21
86.4111
  0
LINE
  8
0
 10
87.2542
 20
86.4111
 11
87.3889
 21
86.3303
  0
LINE
  8
0
 10
87.3889
 20
86.3303
 11
87.515
 21
86.2368
  0
LINE
  8
0
 10
87.515
 20
86.2368
 11
87.6314
 21
86.1314
  0
LINE
  8
0
 10
87.6314
 20
86.1314
 11
87.7368
 21
86.015
  0
LINE
  8
0
 10
87.7368
 20
86.015
 11
87.8303
 21
85.8889
  0
LINE
  8
0
 10
87.8303
 20
85.8889
 11
87.9111
 21
85.7542
  0
LINE
  8
0
 10
87.9111
 20
85.7542
 11
87.9782
 21
85.6123
  0
LINE
  8
0
 10
87.9782
 20
85.6123
 11
88.0311
 21
85.4644
  0
LINE
  8
0
 10
88.0311
 20
85.4644
 11
88.0692
 21
85.3121
  0
LINE
  8
0
 10
88.0692
 20
85.3121
 11
88.0923
 21
85.1568
  0
LINE
  8
0
 10
88.0923
 20
85.1568
 11
88.1
 21
85
  0
LINE
  8
0
 10
88.1
 20
85
 11
88.0923
 21
84.8432
  0
LINE
  8
0
 10
88.0923
 20
84.8432
 11
88.0692
 21
84.6879
  0
LINE
  8
0
 10
88.0692
 20
84.6879
 11
88.0311
 21
84.5355
  0
LINE
  8
0
 10
88.0311
 20
84.5355
 11
87.9782
 21
84.3877
  0
LINE
  8
0
 10
87.9782
 20
84.3877
 11
87.9111
 21
84.2458
  0
LINE
  8
0
 10
87.9111
 20
84.2458
 11
87.8303
 21
84.1111
  0
LINE
  8
0
 10
87.8303
 20
84.1111
 11
87.7368
 21
83.985
  0
LINE
  8
0
 10
87.7368
 20
83.985
 11
87.6314
 21
83.8686
  0
LINE
  8
0
 10
87.6314
 20
83.8686
 11
87.515
 21
83.7632
  0
LINE
  8
0
 10
87.515
 20
83.7632
 11
87.3889
 21
83.6696
  0
LINE
  8
0
 10
87.3889
 20
83.6696
 11
87.2542
 21
83.5889
  0
LINE
  8
0
 10
87.2542
 20
83.5889
 11
87.1123
 21
83.5218
  0
LINE
  8
0
 10
87.1123
 20
83.5218
 11
86.9644
 21
83.4689
  0
LINE
  8
0
 10
86.9644
 20
83.4689
 11
86.8121
 21
83.4307
  0
LINE
  8
0
 10
86.8121
 20
83.4307
 11
86.6568
 21
83.4077
  0
LINE
  8
0
 10
86.6568
 20
83.4077
 11
86.5
 21
83.4
  0
LINE
  8
0
 10
86.5
 20
83.4
 11
86.3432
 21
83.4077
  0
LINE
  8
0
 10
135.343
 20
83.4077
 11
135.188
 21
83.4307
  0
LINE
  8
0
 10
135.188
 20
83.4307
 11
135.036
 21
83.4689
  0
LINE
  8
0
 10
135.036
 20
83.4689
 11
134.888
 21
83.5218
  0
LINE
  8
0
 10
134.888
 20
83.5218
 11
134.746
 21
83.5889
  0
LINE
  8
0
 10
134.746
 20
83.5889
 11
134.611
 21
83.6696
  0
LINE
  8
0
 10
134.611
 20
83.6696
 11
134.485
 21
83.7632
  0
LINE
  8
0
 10
134.485
 20
83.7632
 11
134.369
 21
83.8686
  0
LINE
  8
0
 10
134.369
 20
83.8686
 11
134.263
 21
83.985
  0
LINE
  8
0
 10
134.263
 20
83.985
 11
134.17
 21
84.1111
  0
LINE
  8
0
 10
134.17
 20
84.1111
 11
134.089
 21
84.2458
  0
LINE
  8
0
 10
134.089
 20
84.2458
 11
134.022
 21
84.3877
  0
LINE
  8
0
 10
134.022
 20
84.3877
 11
133.969
 21
84.5355
  0
LINE
  8
0
 10
133.969
 20
84.5355
 11
133.931
 21
84.6879
  0
LINE
  8
0
 10
133.931
 20
84.6879
 11
133.908
 21
84.8432
  0
LINE
  8
0
 10
133.908
 20
84.8432
 11
133.9
 21
85
  0
LINE
  8
0
 10
133.9
 20
85
 11
133.908
 21
85.1568
  0
LINE
  8
0
 10
133.908
 20
85.1568
 11
133.931
 21
85.3121
  0
LINE
  8
0
 10
133.931
 20
85.3121
 11
133.969
 21
85.4644
  0
LINE
  8
0
 10
133.969
 20
85.4644
 11
134.022
 21
85.6123
  0
LINE
  8
0
 10
134.022
 20
85.6123
 11
134.089
 21
85.7542
  0
LINE
  8
0
 10
134.089
 20
85.7542
 11
134.17
 21
85.8889
  0
LINE
  8
0
 10
134.17
 20
85.8889
 11
134.263
 21
86.015
  0
LINE
  8
0
 10
134.263
 20
86.015
 11
134.369
 21
86.1314
  0
LINE
  8
0
 10
134.369
 20
86.1314
 11
134.485
 21
86.2368
  0
LINE
  8
0
 10
134.485
 20
86.2368
 11
134.611
 21
86.3303
  0
LINE
  8
0
 10
134.611
 20
86.3303
 11
134.746
 21
86.4111
  0
LINE
  8
0
 10
134.746
 20
86.4111
 11
134.888
 21
86.4782
  0
LINE
  8
0
 10
134.888
 20
86.4782
 11
135.036
 21
86.5311
  0
LINE
  8
0
 10
135.036
 20
86.5311
 11
135.188
 21
86.5692
  0
LINE
  8
0
 10
135.188
 20
86.5692
 11
135.343
 21
86.5923
  0
LINE
  8
0
 10
135.343
 20
86.5923
 11
135.5
 21
86.6
  0
LINE
  8
0
 10
135.5
 20
86.6
 11
135.657
 21
86.5923
  0
LINE
  8
0
 10
135.657
 20
86.5923
 11
135.812
 21
86.5692
  0
LINE
  8
0
 10
135.812
 20
86.5692
 11
135.964
 21
86.5311
  0
LINE
  8
0
 10
135.964
 20
86.5311
 11
136.112
 21
86.4782
  0
LINE
  8
0
 10
136.112
 20
86.4782
 11
136.254
 21
86.4111
  0
LINE
  8
0
 10
136.254
 20
86.4111
 11
136.389
 21
86.3303
  0
LINE
  8
0
 10
136.389
 20
86.3303
 11
136.515
 21
86.2368
  0
LINE
  8
0
 10
136.515
 20
86.2368
 11
136.631
 21
86.1314
  0
LINE
  8
0
 10
136.631
 20
86.1314
 11
136.737
 21
86.015
  0
LINE
  8
0
 10
136.737
 20
86.015
 11
136.83
 21
85.8889
  0
LINE
  8
0
 10
136.83
 20
85.8889
 11
136.911
 21
85.7542
  0
LINE
  8
0
 10
136.911
 20
85.7542
 11
136.978
 21
85.6123
  0
LINE
  8
0
 10
136.978
 20
85.6123
 11
137.031
 21
85.4644
  0
LINE
  8
0
 10
137.031
 20
85.4644
 11
137.069
 21
85.3121
  0
LINE
  8
0
 10
137.069
 20
85.3121
 11
137.092
 21
85.1568
  0
LINE
  8
0
 10
137.092
 20
85.1568
 11
137.1
 21
85
  0
LINE
  8
0
 10
137.1
 20
85
 11
137.092
 21
84.8432
  0
LINE
  8
0
 10
137.092
 20
84.8432
 11
137.069
 21
84.6879
  0
LINE
  8
0
 10
137.069
 20
84.6879
 11
137.031
 21
84.5355
  0
LINE
  8
0
 10
137.031
 20
84.5355
 11
136.978
 21
84.3877
  0
LINE
  8
0
 10
136.978
 20
84.3877
 11
136.911
 21
84.2458
  0
LINE
  8
0
 10
136.911
 20
84.2458
 11
136.83
 21
84.1111
  0
LINE
  8
0
 10
136.83
 20
84.1111
 11
136.737
 21
83.985
  0
LINE
  8
0
 10
136.737
 20
83.985
 11
136.631
 21
83.8686
  0
LINE
  8
0
 10
136.631
 20
83.8686
 11
136.515
 21
83.7632
  0
LINE
  8
0
 10
136.515
 20
83.7632
 11
136.389
 21
83.6696
  0
LINE
  8
0
 10
136.389
 20
83.6696
 11
136.254
 21
83.5889
  0
LINE
  8
0
 10
136.254
 20
83.5889
 11
136.112
 21
83.5218
  0
LINE
  8
0
 10
136.112
 20
83.5218
 11
135.964
 21
83.4689
  0
LINE
  8
0
 10
135.964
 20
83.4689
 11
135.812
 21
83.4307
  0
LINE
  8
0
 10
135.812
 20
83.4307
 11
135.657
 21
83.4077
  0
LINE
  8
0
 10
135.657
 20
83.4077
 11
135.5
 21
83.4
  0
LINE
  8
0
 10
135.5
 20
83.4
 11
135.343
 21
83.4077
  0
LINE
  8
0
 10
4.87747
 20
48.756
 11
4.75613
 21
48.774
  0
LINE
  8
0
 10
4.75613
 20
48.774
 11
4.63713
 21
48.8038
  0
LINE
  8
0
 10
4.63713
 20
48.8038
 11
4.52164
 21
48.8451
  0
LINE
  8
0
 10
4.52164
 20
48.8451
 11
4.41075
 21
48.8976
  0
LINE
  8
0
 10
4.41075
 20
48.8976
 11
4.30553
 21
48.9607
  0
LINE
  8
0
 10
4.30553
 20
48.9607
 11
4.207
 21
49.0337
  0
LINE
  8
0
 10
4.207
 20
49.0337
 11
4.1161
 21
49.1161
  0
LINE
  8
0
 10
4.1161
 20
49.1161
 11
4.03372
 21
49.207
  0
LINE
  8
0
 10
4.03372
 20
49.207
 11
3.96066
 21
49.3055
  0
LINE
  8
0
 10
3.96066
 20
49.3055
 11
3.8976
 21
49.4108
  0
LINE
  8
0
 10
3.8976
 20
49.4108
 11
3.84514
 21
49.5216
  0
LINE
  8
0
 10
3.84514
 20
49.5216
 11
3.80382
 21
49.6371
  0
LINE
  8
0
 10
3.80382
 20
49.6371
 11
3.77402
 21
49.7561
  0
LINE
  8
0
 10
3.77402
 20
49.7561
 11
3.75601
 21
49.8775
  0
LINE
  8
0
 10
3.75601
 20
49.8775
 11
3.75
 21
50
  0
LINE
  8
0
 10
3.75
 20
50
 11
3.75601
 21
50.1225
  0
LINE
  8
0
 10
3.75601
 20
50.1225
 11
3.77402
 21
50.2439
  0
LINE
  8
0
 10
3.77402
 20
50.2439
 11
3.80382
 21
50.3629
  0
LINE
  8
0
 10
3.80382
 20
50.3629
 11
3.84514
 21
50.4783
  0
LINE
  8
0
 10
3.84514
 20
50.4783
 11
3.8976
 21
50.5892
  0
LINE
  8
0
 10
3.8976
 20
50.5892
 11
3.96066
 21
50.6945
  0
LINE
  8
0
 10
3.96066
 20
50.6945
 11
4.03372
 21
50.793
  0
LINE
  8
0
 10
4.03372
 20
50.793
 11
4.1161
 21
50.8839
  0
LINE
  8
0
 10
4.1161
 20
50.8839
 11
4.207
 21
50.9663
  0
LINE
  8
0
 10
4.207
 20
50.9663
 11
4.30553
 21
51.0393
  0
LINE
  8
0
 10
4.30553
 20
51.0393
 11
4.41075
 21
51.1024
  0
LINE
  8
0
 10
4.41075
 20
51.1024
 11
4.52164
 21
51.1548
  0
LINE
  8
0
 10
4.52164
 20
51.1548
 11
4.63713
 21
51.1962
  0
LINE
  8
0
 10
4.63713
 20
51.1962
 11
4.75613
 21
51.226
  0
LINE
  8
0
 10
4.75613
 20
51.226
 11
4.87747
 21
51.244
  0
LINE
  8
0
 10
4.87747
 20
51.244
 11
5
 21
51.25
  0
LINE
  8
0
 10
5
 20
51.25
 11
5.12251
 21
51.244
  0
LINE
  8
0
 10
5.12251
 20
51.244
 11
5.24385
 21
51.226
  0
LINE
  8
0
 10
5.24385
 20
51.226
 11
5.36285
 21
51.1962
  0
LINE
  8
0
 10
5.36285
 20
51.1962
 11
5.47835
 21
51.1548
  0
LINE
  8
0
 10
5.47835
 20
51.1548
 11
5.58923
 21
51.1024
  0
LINE
  8
0
 10
5.58923
 20
51.1024
 11
5.69446
 21
51.0393
  0
LINE
  8
0
 10
5.69446
 20
51.0393
 11
5.79298
 21
50.9663
  0
LINE
  8
0
 10
5.79298
 20
50.9663
 11
5.88388
 21
50.8839
  0
LINE
  8
0
 10
5.88388
 20
50.8839
 11
5.96626
 21
50.793
  0
LINE
  8
0
 10
5.96626
 20
50.793
 11
6.03932
 21
50.6945
  0
LINE
  8
0
 10
6.03932
 20
50.6945
 11
6.10239
 21
50.5892
  0
LINE
  8
0
 10
6.10239
 20
50.5892
 11
6.15485
 21
50.4783
  0
LINE
  8
0
 10
6.15485
 20
50.4783
 11
6.19617
 21
50.3629
  0
LINE
  8
0
 10
6.19617
 20
50.3629
 11
6.22597
 21
50.2439
  0
LINE
  8
0
 10
6.22597
 20
50.2439
 11
6.24397
 21
50.1225
  0
LINE
  8
0
 10
6.24397
 20
50.1225
 11
6.25
 21
50
  0
LINE
  8
0
 10
6.25
 20
50
 11
6.24397
 21
49.8775
  0
LINE
  8
0
 10
6.24397
 20
49.8775
 11
6.22597
 21
49.7561
  0
LINE
  8
0
 10
6.22597
 20
49.7561
 11
6.19617
 21
49.6371
  0
LINE
  8
0
 10
6.19617
 20
49.6371
 11
6.15485
 21
49.5216
  0
LINE
  8
0
 10
6.15485
 20
49.5216
 11
6.10239
 21
49.4108
  0
LINE
  8
0
 10
6.10239
 20
49.4108
 11
6.03932
 21
49.3055
  0
LINE
  8
0
 10
6.03932
 20
49.3055
 11
5.96626
 21
49.207
  0
LINE
  8
0
 10
5.96626
 20
49.207
 11
5.88388
 21
49.1161
  0
LINE
  8
0
 10
5.88388
 20
49.1161
 11
5.79298
 21
49.0337
  0
LINE
  8
0
 10
5.79298
 20
49.0337
 11
5.69446
 21
48.9607
  0
LINE
  8
0
 10
5.69446
 20
48.9607
 11
5.58923
 21
48.8976
  0
LINE
  8
0
 10
5.58923
 20
48.8976
 11
5.47835
 21
48.8451
  0
LINE
  8
0
 10
5.47835
 20
48.8451
 11
5.36285
 21
48.8038
  0
LINE
  8
0
 10
5.36285
 20
48.8038
 11
5.24385
 21
48.774
  0
LINE
  8
0
 10
5.24385
 20
48.774
 11
5.12251
 21
48.756
  0
LINE
  8
0
 10
5.12251
 20
48.756
 11
5
 21
48.75
  0
LINE
  8
0
 10
5
 20
48.75
 11
4.87747
 21
48.756
  0
LINE
  8
0
 10
224.877
 20
48.756
 11
224.756
 21
48.774
  0
LINE
  8
0
 10
224.756
 20
48.774
 11
224.637
 21
48.8038
  0
LINE
  8
0
 10
224.637
 20
48.8038
 11
224.522
 21
48.8451
  0
LINE
  8
0
 10
224.522
 20
48.8451
 11
224.411
 21
48.8976
  0
LINE
  8
0
 10
224.411
 20
48.8976
 11
224.306
 21
48.9607
  0
LINE
  8
0
 10
224.306
 20
48.9607
 11
224.207
 21
49.0337
  0
LINE
  8
0
 10
224.207
 20
49.0337
 11
224.116
 21
49.1161
  0
LINE
  8
0
 10
224.116
 20
49.1161
 11
224.034
 21
49.207
  0
LINE
  8
0
 10
224.034
 20
49.207
 11
223.961
 21
49.3055
  0
LINE
  8
0
 10
223.961
 20
49.3055
 11
223.898
 21
49.4108
  0
LINE
  8
0
 10
223.898
 20
49.4108
 11
223.845
 21
49.5216
  0
LINE
  8
0
 10
223.845
 20
49.5216
 11
223.804
 21
49.6371
  0
LINE
  8
0
 10
223.804
 20
49.6371
 11
223.774
 21
49.7561
  0
LINE
  8
0
 10
223.774
 20
49.7561
 11
223.756
 21
49.8775
  0
LINE
  8
0
 10
223.756
 20
49.8775
 11
223.75
 21
50
  0
LINE
  8
0
 10
223.75
 20
50
 11
223.756
 21
50.1225
  0
LINE
  8
0
 10
223.756
 20
50.1225
 11
223.774
 21
50.2439
  0
LINE
  8
0
 10
223.774
 20
50.2439
 11
223.804
 21
50.3629
  0
LINE
  8
0
 10
223.804
 20
50.3629
 11
223.845
 21
50.4783
  0
LINE
  8
0
 10
223.845
 20
50.4783
 11
223.898
 21
50.5892
  0
LINE
  8
0
 10
223.898
 20
50.5892
 11
223.961
 21
50.6945
  0
LINE
  8
0
 10
223.961
 20
50.6945
 11
224.034
 21
50.793
  0
LINE
  8
0
 10
224.034
 20
50.793
 11
224.116
 21
50.8839
  0
LINE
  8
0
 10
224.116
 20
50.8839
 11
224.207
 21
50.9663
  0
LINE
  8
0
 10
224.207
 20
50.9663
 11
224.306
 21
51.0393
  0
LINE
  8
0
 10
224.306
 20
51.0393
 11
224.411
 21
51.1024
  0
LINE
  8
0
 10
224.411
 20
51.1024
 11
224.522
 21
51.1548
  0
LINE
  8
0
 10
224.522
 20
51.1548
 11
224.637
 21
51.1962
  0
LINE
  8
0
 10
224.637
 20
51.1962
 11
224.756
 21
51.226
  0
LINE
  8
0
 10
224.756
 20
51.226
 11
224.877
 21
51.244
  0
LINE
  8
0
 10
224.877
 20
51.244
 11
225
 21
51.25
  0
LINE
  8
0
 10
225
 20
51.25
 11
225.123
 21
51.244
  0
LINE
  8
0
 10
225.123
 20
51.244
 11
225.244
 21
51.226
  0
LINE
  8
0
 10
225.244
 20
51.226
 11
225.363
 21
51.1962
  0
LINE
  8
0
 10
225.363
 20
51.1962
 11
225.478
 21
51.1548
  0
LINE
  8
0
 10
225.478
 20
51.1548
 11
225.589
 21
51.1024
  0
LINE
  8
0
 10
225.589
 20
51.1024
 11
225.694
 21
51.0393
  0
LINE
  8
0
 10
225.694
 20
51.0393
 11
225.793
 21
50.9663
  0
LINE
  8
0
 10
225.793
 20
50.9663
 11
225.884
 21
50.8839
  0
LINE
  8
0
 10
225.884
 20
50.8839
 11
225.966
 21
50.793
  0
LINE
  8
0
 10
225.966
 20
50.793
 11
226.039
 21
50.6945
  0
LINE
  8
0
 10
226.039
 20
50.6945
 11
226.102
 21
50.5892
  0
LINE
  8
0
 10
226.102
 20
50.5892
 11
226.155
 21
50.4783
  0
LINE
  8
0
 10
226.155
 20
50.4783
 11
226.196
 21
50.3629
  0
LINE
  8
0
 10
226.196
 20
50.3629
 11
226.226
 21
50.2439
  0
LINE
  8
0
 10
226.226
 20
50.2439
 11
226.244
 21
50.1225
  0
LINE
  8
0
 10
226.244
 20
50.1225
 11
226.25
 21
50
  0
LINE
  8
0
 10
226.25
 20
50
 11
226.244
 21
49.8775
  0
LINE
  8
0
 10
226.244
 20
49.8775
 11
226.226
 21
49.7561
  0
LINE
  8
0
 10
226.226
 20
49.7561
 11
226.196
 21
49.6371
  0
LINE
  8
0
 10
226.196
 20
49.6371
 11
226.155
 21
49.5216
  0
LINE
  8
0
 10
226.155
 20
49.5216
 11
226.102
 21
49.4108
  0
LINE
  8
0
 10
226.102
 20
49.4108
 11
226.039
 21
49.3055
  0
LINE
  8
0
 10
226.039
 20
49.3055
 11
225.966
 21
49.207
  0
LINE
  8
0
 10
225.966
 20
49.207
 11
225.884
 21
49.1161
  0
LINE
  8
0
 10
225.884
 20
49.1161
 11
225.793
 21
49.0337
  0
LINE
  8
0
 10
225.793
 20
49.0337
 11
225.694
 21
48.9607
  0
LINE
  8
0
 10
225.694
 20
48.9607
 11
225.589
 21
48.8976
  0
LINE
  8
0
 10
225.589
 20
48.8976
 11
225.478
 21
48.8451
  0
LINE
  8
0
 10
225.478
 20
48.8451
 11
225.363
 21
48.8038
  0
LINE
  8
0
 10
225.363
 20
48.8038
 11
225.244
 21
48.774
  0
LINE
  8
0
 10
225.244
 20
48.774
 11
225.123
 21
48.756
  0
LINE
  8
0
 10
225.123
 20
48.756
 11
225
 21
48.75
  0
LINE
  8
0
 10
225
 20
48.75
 11
224.877
 21
48.756
  0
LINE
  8
0
 10
86.3432
 20
25.4077
 11
86.1879
 21
25.4308
  0
LINE
  8
0
 10
86.1879
 20
25.4308
 11
86.0356
 21
25.4689
  0
LINE
  8
0
 10
86.0356
 20
25.4689
 11
85.8877
 21
25.5218
  0
LINE
  8
0
 10
85.8877
 20
25.5218
 11
85.7458
 21
25.5889
  0
LINE
  8
0
 10
85.7458
 20
25.5889
 11
85.6111
 21
25.6697
  0
LINE
  8
0
 10
85.6111
 20
25.6697
 11
85.485
 21
25.7632
  0
LINE
  8
0
 10
85.485
 20
25.7632
 11
85.3686
 21
25.8686
  0
LINE
  8
0
 10
85.3686
 20
25.8686
 11
85.2632
 21
25.985
  0
LINE
  8
0
 10
85.2632
 20
25.985
 11
85.1697
 21
26.1111
  0
LINE
  8
0
 10
85.1697
 20
26.1111
 11
85.0889
 21
26.2458
  0
LINE
  8
0
 10
85.0889
 20
26.2458
 11
85.0218
 21
26.3877
  0
LINE
  8
0
 10
85.0218
 20
26.3877
 11
84.9689
 21
26.5356
  0
LINE
  8
0
 10
84.9689
 20
26.5356
 11
84.9308
 21
26.6879
  0
LINE
  8
0
 10
84.9308
 20
26.6879
 11
84.9077
 21
26.8432
  0
LINE
  8
0
 10
84.9077
 20
26.8432
 11
84.9
 21
27
  0
LINE
  8
0
 10
84.9
 20
27
 11
84.9077
 21
27.1568
  0
LINE
  8
0
 10
84.9077
 20
27.1568
 11
84.9308
 21
27.3121
  0
LINE
  8
0
 10
84.9308
 20
27.3121
 11
84.9689
 21
27.4644
  0
LINE
  8
0
 10
84.9689
 20
27.4644
 11
85.0218
 21
27.6123
  0
LINE
  8
0
 10
85.0218
 20
27.6123
 11
85.0889
 21
27.7542
  0
LINE
  8
0
 10
85.0889
 20
27.7542
 11
85.1697
 21
27.8889
  0
LINE
  8
0
 10
85.1697
 20
27.8889
 11
85.2632
 21
28.015
  0
LINE
  8
0
 10
85.2632
 20
28.015
 11
85.3686
 21
28.1314
  0
LINE
  8
0
 10
85.3686
 20
28.1314
 11
85.485
 21
28.2368
  0
LINE
  8
0
 10
85.485
 20
28.2368
 11
85.6111
 21
28.3303
  0
LINE
  8
0
 10
85.6111
 20
28.3303
 11
85.7458
 21
28.4111
  0
LINE
  8
0
 10
85.7458
 20
28.4111
 11
85.8877
 21
28.4782
  0
LINE
  8
0
 10
85.8877
 20
28.4782
 11
86.0356
 21
28.5311
  0
LINE
  8
0
 10
86.0356
 20
28.5311
 11
86.1879
 21
28.5692
  0
LINE
  8
0
 10
86.1879
 20
28.5692
 11
86.3432
 21
28.5923
  0
LINE
  8
0
 10
86.3432
 20
28.5923
 11
86.5
 21
28.6
  0
LINE
  8
0
 10
86.5
 20
28.6
 11
86.6568
 21
28.5923
  0
LINE
  8
0
 10
86.6568
 20
28.5923
 11
86.8121
 21
28.5692
  0
LINE
  8
0
 10
86.8121
 20
28.5692
 11
86.9644
 21
28.5311
  0
LINE
  8
0
 10
86.9644
 20
28.5311
 11
87.1123
 21
28.4782
  0
LINE
  8
0
 10
87.1123
 20
28.4782
 11
87.2542
 21
28.4111
  0
LINE
  8
0
 10
87.2542
 20
28.4111
 11
87.3889
 21
28.3303
  0
LINE
  8
0
 10
87.3889
 20
28.3303
 11
87.515
 21
28.2368
  0
LINE
  8
0
 10
87.515
 20
28.2368
 11
87.6314
 21
28.1314
  0
LINE
  8
0
 10
87.6314
 20
28.1314
 11
87.7368
 21
28.015
  0
LINE
  8
0
 10
87.7368
 20
28.015
 11
87.8303
 21
27.8889
  0
LINE
  8
0
 10
87.8303
 20
27.8889
 11
87.9111
 21
27.7542
  0
LINE
  8
0
 10
87.9111
 20
27.7542
 11
87.9782
 21
27.6123
  0
LINE
  8
0
 10
87.9782
 20
27.6123
 11
88.0311
 21
27.4644
  0
LINE
  8
0
 10
88.0311
 20
27.4644
 11
88.0692
 21
27.3121
  0
LINE
  8
0
 10
88.0692
 20
27.3121
 11
88.0923
 21
27.1568
  0
LINE
  8
0
 10
88.0923
 20
27.1568
 11
88.1
 21
27
  0
LINE
  8
0
 10
88.1
 20
27
 11
88.0923
 21
26.8432
  0
LINE
  8
0
 10
88.0923
 20
26.8432
 11
88.0692
 21
26.6879
  0
LINE
  8
0
 10
88.0692
 20
26.6879
 11
88.0311
 21
26.5356
  0
LINE
  8
0
 10
88.0311
 20
26.5356
 11
87.9782
 21
26.3877
  0
LINE
  8
0
 10
87.9782
 20
26.3877
 11
87.9111
 21
26.2458
  0
LINE
  8
0
 10
87.9111
 20
26.2458
 11
87.8303
 21
26.1111
  0
LINE
  8
0
 10
87.8303
 20
26.1111
 11
87.7368
 21
25.985
  0
LINE
  8
0
 10
87.7368
 20
25.985
 11
87.6314
 21
25.8686
  0
LINE
  8
0
 10
87.6314
 20
25.8686
 11
87.515
 21
25.7632
  0
LINE
  8
0
 10
87.515
 20
25.7632
 11
87.3889
 21
25.6697
  0
LINE
  8
0
 10
87.3889
 20
25.6697
 11
87.2542
 21
25.5889
  0
LINE
  8
0
 10
87.2542
 20
25.5889
 11
87.1123
 21
25.5218
  0
LINE
  8
0
 10
87.1123
 20
25.5218
 11
86.9644
 21
25.4689
  0
LINE
  8
0
 10
86.9644
 20
25.4689
 11
86.8121
 21
25.4308
  0
LINE
  8
0
 10
86.8121
 20
25.4308
 11
86.6568
 21
25.4077
  0
LINE
  8
0
 10
86.6568
 20
25.4077
 11
86.5
 21
25.4
  0
LINE
  8
0
 10
86.5
 20
25.4
 11
86.3432
 21
25.4077
  0
LINE
  8
0
 10
135.343
 20
25.4077
 11
135.188
 21
25.4308
  0
LINE
  8
0
 10
135.188
 20
25.4308
 11
135.036
 21
25.4689
  0
LINE
  8
0
 10
135.036
 20
25.4689
 11
134.888
 21
25.5218
  0
LINE
  8
0
 10
134.888
 20
25.5218
 11
134.746
 21
25.5889
  0
LINE
  8
0
 10
134.746
 20
25.5889
 11
134.611
 21
25.6697
  0
LINE
  8
0
 10
134.611
 20
25.6697
 11
134.485
 21
25.7632
  0
LINE
  8
0
 10
134.485
 20
25.7632
 11
134.369
 21
25.8686
  0
LINE
  8
0
 10
134.369
 20
25.8686
 11
134.263
 21
25.985
  0
LINE
  8
0
 10
134.263
 20
25.985
 11
134.17
 21
26.1111
  0
LINE
  8
0
 10
134.17
 20
26.1111
 11
134.089
 21
26.2458
  0
LINE
  8
0
 10
134.089
 20
26.2458
 11
134.022
 21
26.3877
  0
LINE
  8
0
 10
134.022
 20
26.3877
 11
133.969
 21
26.5356
  0
LINE
  8
0
 10
133.969
 20
26.5356
 11
133.931
 21
26.6879
  0
LINE
  8
0
 10
133.931
 20
26.6879
 11
133.908
 21
26.8432
  0
LINE
  8
0
 10
133.908
 20
26.8432
 11
133.9
 21
27
  0
LINE
  8
0
 10
133.9
 20
27
 11
133.908
 21
27.1568
  0
LINE
  8
0
 10
133.908
 20
27.1568
 11
133.931
 21
27.3121
  0
LINE
  8
0
 10
133.931
 20
27.3121
 11
133.969
 21
27.4644
  0
LINE
  8
0
 10
133.969
 20
27.4644
 11
134.022
 21
27.6123
  0
LINE
  8
0
 10
134.022
 20
27.6123
 11
134.089
 21
27.7542
  0
LINE
  8
0
 10
134.089
 20
27.7542
 11
134.17
 21
27.8889
  0
LINE
  8
0
 10
134.17
 20
27.8889
 11
134.263
 21
28.015
  0
LINE
  8
0
 10
134.263
 20
28.015
 11
134.369
 21
28.1314
  0
LINE
  8
0
 10
134.369
 20
28.1314
 11
134.485
 21
28.2368
  0
LINE
  8
0
 10
134.485
 20
28.2368
 11
134.611
 21
28.3303
  0
LINE
  8
0
 10
134.611
 20
28.3303
 11
134.746
 21
28.4111
  0
LINE
  8
0
 10
134.746
 20
28.4111
 11
134.888
 21
28.4782
  0
LINE
  8
0
 10
134.888
 20
28.4782
 11
135.036
 21
28.5311
  0
LINE
  8
0
 10
135.036
 20
28.5311
 11
135.188
 21
28.5692
  0
LINE
  8
0
 10
135.188
 20
28.5692
 11
135.343
 21
28.5923
  0
LINE
  8
0
 10
135.343
 20
28.5923
 11
135.5
 21
28.6
  0
LINE
  8
0
 10
135.5
 20
28.6
 11
135.657
 21
28.5923
  0
LINE
  8
0
 10
135.657
 20
28.5923
 11
135.812
 21
28.5692
  0
LINE
  8
0
 10
135.812
 20
28.5692
 11
135.964
 21
28.5311
  0
LINE
  8
0
 10
135.964
 20
28.5311
 11
136.112
 21
28.4782
  0
LINE
  8
0
 10
136.112
 20
28.4782
 11
136.254
 21
28.4111
  0
LINE
  8
0
 10
136.254
 20
28.4111
 11
136.389
 21
28.3303
  0
LINE
  8
0
 10
136.389
 20
28.3303
 11
136.515
 21
28.2368
  0
LINE
  8
0
 10
136.515
 20
28.2368
 11
136.631
 21
28.1314
  0
LINE
  8
0
 10
136.631
 20
28.1314
 11
136.737
 21
28.015
  0
LINE
  8
0
 10
136.737
 20
28.015
 11
136.83
 21
27.8889
  0
LINE
  8
0
 10
136.83
 20
27.8889
 11
136.911
 21
27.7542
  0
LINE
  8
0
 10
136.911
 20
27.7542
 11
136.978
 21
27.6123
  0
LINE
  8
0
 10
136.978
 20
27.6123
 11
137.031
 21
27.4644
  0
LINE
  8
0
 10
137.031
 20
27.4644
 11
137.069
 21
27.3121
  0
LINE
  8
0
 10
137.069
 20
27.3121
 11
137.092
 21
27.1568
  0
LINE
  8
0
 10
137.092
 20
27.1568
 11
137.1
 21
27
  0
LINE
  8
0
 10
137.1
 20
27
 11
137.092
 21
26.8432
  0
LINE
  8
0
 10
137.092
 20
26.8432
 11
137.069
 21
26.6879
  0
LINE
  8
0
 10
137.069
 20
26.6879
 11
137.031
 21
26.5356
  0
LINE
  8
0
 10
137.031
 20
26.5356
 11
136.978
 21
26.3877
  0
LINE
  8
0
 10
136.978
 20
26.3877
 11
136.911
 21
26.2458
  0
LINE
  8
0
 10
136.911
 20
26.2458
 11
136.83
 21
26.1111
  0
LINE
  8
0
 10
136.83
 20
26.1111
 11
136.737
 21
25.985
  0
LINE
  8
0
 10
136.737
 20
25.985
 11
136.631
 21
25.8686
  0
LINE
  8
0
 10
136.631
 20
25.8686
 11
136.515
 21
25.7632
  0
LINE
  8
0
 10
136.515
 20
25.7632
 11
136.389
 21
25.6697
  0
LINE
  8
0
 10
136.389
 20
25.6697
 11
136.254
 21
25.5889
  0
LINE
  8
0
 10
136.254
 20
25.5889
 11
136.112
 21
25.5218
  0
LINE
  8
0
 10
136.112
 20
25.5218
 11
135.964
 21
25.4689
  0
LINE
  8
0
 10
135.964
 20
25.4689
 11
135.812
 21
25.4308
  0
LINE
  8
0
 10
135.812
 20
25.4308
 11
135.657
 21
25.4077
  0
LINE
  8
0
 10
135.657
 20
25.4077
 11
135.5
 21
25.4
  0
LINE
  8
0
 10
135.5
 20
25.4
 11
135.343
 21
25.4077
  0
LINE
  8
0
 10
19.7549
 20
17.512
 11
19.5123
 21
17.548
  0
LINE
  8
0
 10
19.5123
 20
17.548
 11
19.2743
 21
17.6076
  0
LINE
  8
0
 10
19.2743
 20
17.6076
 11
19.0433
 21
17.6903
  0
LINE
  8
0
 10
19.0433
 20
17.6903
 11
18.8215
 21
17.7952
  0
LINE
  8
0
 10
18.8215
 20
17.7952
 11
18.6111
 21
17.9213
  0
LINE
  8
0
 10
18.6111
 20
17.9213
 11
18.414
 21
18.0675
  0
LINE
  8
0
 10
18.414
 20
18.0675
 11
18.2322
 21
18.2322
  0
LINE
  8
0
 10
18.2322
 20
18.2322
 11
18.0675
 21
18.414
  0
LINE
  8
0
 10
18.0675
 20
18.414
 11
17.9213
 21
18.6111
  0
LINE
  8
0
 10
17.9213
 20
18.6111
 11
17.7952
 21
18.8215
  0
LINE
  8
0
 10
17.7952
 20
18.8215
 11
17.6903
 21
19.0433
  0
LINE
  8
0
 10
17.6903
 20
19.0433
 11
17.6076
 21
19.2743
  0
LINE
  8
0
 10
17.6076
 20
19.2743
 11
17.548
 21
19.5123
  0
LINE
  8
0
 10
17.548
 20
19.5123
 11
17.512
 21
19.7549
  0
LINE
  8
0
 10
17.512
 20
19.7549
 11
17.5
 21
20
  0
LINE
  8
0
 10
17.5
 20
20
 11
17.512
 21
20.245
  0
LINE
  8
0
 10
17.512
 20
20.245
 11
17.548
 21
20.4877
  0
LINE
  8
0
 10
17.548
 20
20.4877
 11
17.6076
 21
20.7257
  0
LINE
  8
0
 10
17.6076
 20
20.7257
 11
17.6903
 21
20.9567
  0
LINE
  8
0
 10
17.6903
 20
20.9567
 11
17.7952
 21
21.1785
  0
LINE
  8
0
 10
17.7952
 20
21.1785
 11
17.9213
 21
21.3889
  0
LINE
  8
0
 10
17.9213
 20
21.3889
 11
18.0675
 21
21.586
  0
LINE
  8
0
 10
18.0675
 20
21.586
 11
18.2322
 21
21.7678
  0
LINE
  8
0
 10
18.2322
 20
21.7678
 11
18.414
 21
21.9325
  0
LINE
  8
0
 10
18.414
 20
21.9325
 11
18.6111
 21
22.0787
  0
LINE
  8
0
 10
18.6111
 20
22.0787
 11
18.8215
 21
22.2048
  0
LINE
  8
0
 10
18.8215
 20
22.2048
 11
19.0433
 21
22.3097
  0
LINE
  8
0
 10
19.0433
 20
22.3097
 11
19.2743
 21
22.3923
  0
LINE
  8
0
 10
19.2743
 20
22.3923
 11
19.5123
 21
22.452
  0
LINE
  8
0
 10
19.5123
 20
22.452
 11
19.7549
 21
22.488
  0
LINE
  8
0
 10
19.7549
 20
22.488
 11
20
 21
22.5
  0
LINE
  8
0
 10
20
 20
22.5
 11
20.245
 21
22.488
  0
LINE
  8
0
 10
20.245
 20
22.488
 11
20.4877
 21
22.452
  0
LINE
  8
0
 10
20.4877
 20
22.452
 11
20.7257
 21
22.3923
  0
LINE
  8
0
 10
20.7257
 20
22.3923
 11
20.9567
 21
22.3097
  0
LINE
  8
0
 10
20.9567
 20
22.3097
 11
21.1785
 21
22.2048
  0
LINE
  8
0
 10
21.1785
 20
22.2048
 11
21.3889
 21
22.0787
  0
LINE
  8
0
 10
21.3889
 20
22.0787
 11
21.586
 21
21.9325
  0
LINE
  8
0
 10
21.586
 20
21.9325
 11
21.7678
 21
21.7678
  0
LINE
  8
0
 10
21.7678
 20
21.7678
 11
21.9325
 21
21.586
  0
LINE
  8
0
 10
21.9325
 20
21.586
 11
22.0787
 21
21.3889
  0
LINE
  8
0
 10
22.0787
 20
21.3889
 11
22.2048
 21
21.1785
  0
LINE
  8
0
 10
22.2048
 20
21.1785
 11
22.3097
 21
20.9567
  0
LINE
  8
0
 10
22.3097
 20
20.9567
 11
22.3923
 21
20.7257
  0
LINE
  8
0
 10
22.3923
 20
20.7257
 11
22.452
 21
20.4877
  0
LINE
  8
0
 10
22.452
 20
20.4877
 11
22.488
 21
20.245
  0
LINE
  8
0
 10
22.488
 20
20.245
 11
22.5
 21
20
  0
LINE
  8
0
 10
22.5
 20
20
 11
22.488
 21
19.7549
  0
LINE
  8
0
 10
22.488
 20
19.7549
 11
22.452
 21
19.5123
  0
LINE
  8
0
 10
22.452
 20
19.5123
 11
22.3923
 21
19.2743
  0
LINE
  8
0
 10
22.3923
 20
19.2743
 11
22.3097
 21
19.0433
  0
LINE
  8
0
 10
22.3097
 20
19.0433
 11
22.2048
 21
18.8215
  0
LINE
  8
0
 10
22.2048
 20
18.8215
 11
22.0787
 21
18.6111
  0
LINE
  8
0
 10
22.0787
 20
18.6111
 11
21.9325
 21
18.414
  0
LINE
  8
0
 10
21.9325
 20
18.414
 11
21.7678
 21
18.2322
  0
LINE
  8
0
 10
21.7678
 20
18.2322
 11
21.586
 21
18.0675
  0
LINE
  8
0
 10
21.586
 20
18.0675
 11
21.3889
 21
17.9213
  0
LINE
  8
0
 10
21.3889
 20
17.9213
 11
21.1785
 21
17.7952
  0
LINE
  8
0
 10
21.1785
 20
17.7952
 11
20.9567
 21
17.6903
  0
LINE
  8
0
 10
20.9567
 20
17.6903
 11
20.7257
 21
17.6076
  0
LINE
  8
0
 10
20.7257
 20
17.6076
 11
20.4877
 21
17.548
  0
LINE
  8
0
 10
20.4877
 20
17.548
 11
20.245
 21
17.512
  0
LINE
  8
0
 10
20.245
 20
17.512
 11
20
 21
17.5
  0
LINE
  8
0
 10
20
 20
17.5
 11
19.7549
 21
17.512
  0
LINE
  8
0
 10
209.755
 20
17.512
 11
209.512
 21
17.548
  0
LINE
  8
0
 10
209.512
 20
17.548
 11
209.274
 21
17.6076
  0
LINE
  8
0
 10
209.274
 20
17.6076
 11
209.043
 21
17.6903
  0
LINE
  8
0
 10
209.043
 20
17.6903
 11
208.822
 21
17.7952
  0
LINE
  8
0
 10
208.822
 20
17.7952
 11
208.611
 21
17.9213
  0
LINE
  8
0
 10
208.611
 20
17.9213
 11
208.414
 21
18.0675
  0
LINE
  8
0
 10
208.414
 20
18.0675
 11
208.232
 21
18.2322
  0
LINE
  8
0
 10
208.232
 20
18.2322
 11
208.067
 21
18.414
  0
LINE
  8
0
 10
208.067
 20
18.414
 11
207.921
 21
18.6111
  0
LINE
  8
0
 10
207.921
 20
18.6111
 11
207.795
 21
18.8215
  0
LINE
  8
0
 10
207.795
 20
18.8215
 11
207.69
 21
19.0433
  0
LINE
  8
0
 10
207.69
 20
19.0433
 11
207.608
 21
19.2743
  0
LINE
  8
0
 10
207.608
 20
19.2743
 11
207.548
 21
19.5123
  0
LINE
  8
0
 10
207.548
 20
19.5123
 11
207.512
 21
19.7549
  0
LINE
  8
0
 10
207.512
 20
19.7549
 11
207.5
 21
20
  0
LINE
  8
0
 10
207.5
 20
20
 11
207.512
 21
20.245
  0
LINE
  8
0
 10
207.512
 20
20.245
 11
207.548
 21
20.4877
  0
LINE
  8
0
 10
207.548
 20
20.4877
 11
207.608
 21
20.7257
  0
LINE
  8
0
 10
207.608
 20
20.7257
 11
207.69
 21
20.9567
  0
LINE
  8
0
 10
207.69
 20
20.9567
 11
207.795
 21
21.1785
  0
LINE
  8
0
 10
207.795
 20
21.1785
 11
207.921
 21
21.3889
  0
LINE
  8
0
 10
207.921
 20
21.3889
 11
208.067
 21
21.586
  0
LINE
  8
0
 10
208.067
 20
21.586
 11
208.232
 21
21.7678
  0
LINE
  8
0
 10
208.232
 20
21.7678
 11
208.414
 21
21.9325
  0
LINE
  8
0
 10
208.414
 20
21.9325
 11
208.611
 21
22.0787
  0
LINE
  8
0
 10
208.611
 20
22.0787
 11
208.822
 21
22.2048
  0
LINE
  8
0
 10
208.822
 20
22.2048
 11
209.043
 21
22.3097
  0
LINE
  8
0
 10
209.043
 20
22.3097
 11
209.274
 21
22.3923
  0
LINE
  8
0
 10
209.274
 20
22.3923
 11
209.512
 21
22.452
  0
LINE
  8
0
 10
209.512
 20
22.452
 11
209.755
 21
22.488
  0
LINE
  8
0
 10
209.755
 20
22.488
 11
210
 21
22.5
  0
LINE
  8
0
 10
210
 20
22.5
 11
210.245
 21
22.488
  0
LINE
  8
0
 10
210.245
 20
22.488
 11
210.488
 21
22.452
  0
LINE
  8
0
 10
210.488
 20
22.452
 11
210.726
 21
22.3923
  0
LINE
  8
0
 10
210.726
 20
22.3923
 11
210.957
 21
22.3097
  0
LINE
  8
0
 10
210.957
 20
22.3097
 11
211.178
 21
22.2048
  0
LINE
  8
0
 10
211.178
 20
22.2048
 11
211.389
 21
22.0787
  0
LINE
  8
0
 10
211.389
 20
22.0787
 11
211.586
 21
21.9325
  0
LINE
  8
0
 10
211.586
 20
21.9325
 11
211.768
 21
21.7678
  0
LINE
  8
0
 10
211.768
 20
21.7678
 11
211.933
 21
21.586
  0
LINE
  8
0
 10
211.933
 20
21.586
 11
212.079
 21
21.3889
  0
LINE
  8
0
 10
212.079
 20
21.3889
 11
212.205
 21
21.1785
  0
LINE
  8
0
 10
212.205
 20
21.1785
 11
212.31
 21
20.9567
  0
LINE
  8
0
 10
212.31
 20
20.9567
 11
212.392
 21
20.7257
  0
LINE
  8
0
 10
212.392
 20
20.7257
 11
212.452
 21
20.4877
  0
LINE
  8
0
 10
212.452
 20
20.4877
 11
212.488
 21
20.245
  0
LINE
  8
0
 10
212.488
 20
20.245
 11
212.5
 21
20
  0
LINE
  8
0
 10
212.5
 20
20
 11
212.488
 21
19.7549
  0
LINE
  8
0
 10
212.488
 20
19.7549
 11
212.452
 21
19.5123
  0
LINE
  8
0
 10
212.452
 20
19.5123
 11
212.392
 21
19.2743
  0
LINE
  8
0
 10
212.392
 20
19.2743
 11
212.31
 21
19.0433
  0
LINE
  8
0
 10
212.31
 20
19.0433
 11
212.205
 21
18.8215
  0
LINE
  8
0
 10
212.205
 20
18.8215
 11
212.079
 21
18.6111
  0
LINE
  8
0
 10
212.079
 20
18.6111
 11
211.933
 21
18.414
  0
LINE
  8
0
 10
211.933
 20
18.414
 11
211.768
 21
18.2322
  0
LINE
  8
0
 10
211.768
 20
18.2322
 11
211.586
 21
18.0675
  0
LINE
  8
0
 10
211.586
 20
18.0675
 11
211.389
 21
17.9213
  0
LINE
  8
0
 10
211.389
 20
17.9213
 11
211.178
 21
17.7952
  0
LINE
  8
0
 10
211.178
 20
17.7952
 11
210.957
 21
17.6903
  0
LINE
  8
0
 10
210.957
 20
17.6903
 11
210.726
 21
17.6076
  0
LINE
  8
0
 10
210.726
 20
17.6076
 11
210.488
 21
17.548
  0
LINE
  8
0
 10
210.488
 20
17.548
 11
210.245
 21
17.512
  0
LINE
  8
0
 10
210.245
 20
17.512
 11
210
 21
17.5
  0
LINE
  8
0
 10
210
 20
17.5
 11
209.755
 21
17.512
  0
ENDSEC
  0
SECTION
  2
OBJECTS
  0
DICTIONARY
  0
ENDSEC
  0
EOF
