  0
SECTION
  2
BLOCKS
  0
ENDSEC
  0
SECTION
  2
ENTITIES
  0
LINE
  8
0
 10
233.077
 20
75.5064
 11
233.204
 21
75.9245
  0
LINE
  8
0
 10
233.204
 20
75.9245
 11
233.271
 21
76.6069
  0
LINE
  8
0
 10
233.271
 20
76.6069
 11
233.376
 21
77.2
  0
LINE
  8
0
 10
233.376
 20
77.2
 11
233.27
 21
77.2
  0
LINE
  8
0
 10
233.27
 20
77.2
 11
233.204
 21
77.8754
  0
LINE
  8
0
 10
233.204
 20
77.8754
 11
232.919
 21
78.8134
  0
LINE
  8
0
 10
232.919
 20
78.8134
 11
232.457
 21
79.6778
  0
LINE
  8
0
 10
232.457
 20
79.6778
 11
231.836
 21
80.4355
  0
LINE
  8
0
 10
231.836
 20
80.4355
 11
231.078
 21
81.0573
  0
LINE
  8
0
 10
231.078
 20
81.0573
 11
230.213
 21
81.5194
  0
LINE
  8
0
 10
230.213
 20
81.5194
 11
229.275
 21
81.8039
  0
LINE
  8
0
 10
229.275
 20
81.8039
 11
229.2
 21
81.8114
  0
LINE
  8
0
 10
229.2
 20
81.8114
 11
229.2
 21
81.8921
  0
LINE
  8
0
 10
229.2
 20
81.8921
 11
182.151
 21
95.3833
  0
LINE
  8
0
 10
182.151
 20
95.3833
 11
182.144
 21
95.3546
  0
LINE
  8
0
 10
182.144
 20
95.3546
 11
181.716
 21
95.5079
  0
LINE
  8
0
 10
181.716
 20
95.5079
 11
180
 21
96
  0
LINE
  8
0
 10
180
 20
96
 11
180
 21
96.1219
  0
LINE
  8
0
 10
180
 20
96.1219
 11
172.978
 21
98.6345
  0
LINE
  8
0
 10
172.978
 20
98.6345
 11
162.332
 21
103.669
  0
LINE
  8
0
 10
162.332
 20
103.669
 11
152.232
 21
109.724
  0
LINE
  8
0
 10
152.232
 20
109.724
 11
142.773
 21
116.739
  0
LINE
  8
0
 10
142.773
 20
116.739
 11
134.047
 21
124.647
  0
LINE
  8
0
 10
134.047
 20
124.647
 11
126.139
 21
133.373
  0
LINE
  8
0
 10
126.139
 20
133.373
 11
119.124
 21
142.832
  0
LINE
  8
0
 10
119.124
 20
142.832
 11
113.069
 21
152.932
  0
LINE
  8
0
 10
113.069
 20
152.932
 11
108.034
 21
163.578
  0
LINE
  8
0
 10
108.034
 20
163.578
 11
104.067
 21
174.666
  0
LINE
  8
0
 10
104.067
 20
174.666
 11
101.206
 21
186.089
  0
LINE
  8
0
 10
101.206
 20
186.089
 11
99.4778
 21
197.738
  0
LINE
  8
0
 10
99.4778
 20
197.738
 11
98.9
 21
209.5
  0
LINE
  8
0
 10
98.9
 20
209.5
 11
99.4778
 21
221.262
  0
LINE
  8
0
 10
99.4778
 20
221.262
 11
101.206
 21
232.911
  0
LINE
  8
0
 10
101.206
 20
232.911
 11
102.856
 21
239.5
  0
LINE
  8
0
 10
102.856
 20
239.5
 11
103.035
 21
239.5
  0
LINE
  8
0
 10
103.035
 20
239.5
 11
95.0122
 21
285
  0
LINE
  8
0
 10
95.0122
 20
285
 11
94.931
 21
285
  0
LINE
  8
0
 10
94.931
 20
285
 11
94.9039
 21
285.275
  0
LINE
  8
0
 10
94.9039
 20
285.275
 11
94.6194
 21
286.213
  0
LINE
  8
0
 10
94.6194
 20
286.213
 11
94.1573
 21
287.078
  0
LINE
  8
0
 10
94.1573
 20
287.078
 11
93.5355
 21
287.836
  0
LINE
  8
0
 10
93.5355
 20
287.836
 11
92.7778
 21
288.457
  0
LINE
  8
0
 10
92.7778
 20
288.457
 11
91.9134
 21
288.919
  0
LINE
  8
0
 10
91.9134
 20
288.919
 11
90.9754
 21
289.204
  0
LINE
  8
0
 10
90.9754
 20
289.204
 11
90
 21
289.3
  0
LINE
  8
0
 10
90
 20
289.3
 11
89.0245
 21
289.204
  0
LINE
  8
0
 10
89.0245
 20
289.204
 11
89
 21
289.196
  0
LINE
  8
0
 10
89
 20
289.196
 11
89
 21
289.22
  0
LINE
  8
0
 10
89
 20
289.22
 11
0
 21
273.527
  0
LINE
  8
0
 10
0
 20
273.527
 11
0
 21
0
  0
LINE
  8
0
 10
0
 20
0
 11
219.763
 21
0
  0
LINE
  8
0
 10
219.763
 20
0
 11
233.077
 21
75.5064
  0
LINE
  8
0
 10
250
 20
86.1622
 11
249.928
 21
85.9128
  0
LINE
  8
0
 10
249.928
 20
85.9128
 11
250
 21
85.9002
  0
LINE
  8
0
 10
250
 20
85.9002
 11
250
 21
86.1622
  0
ENDSEC
  0
SECTION
  2
OBJECTS
  0
DICTIONARY
  0
ENDSEC
  0
EOF
