  0
SECTION
  2
BLOCKS
  0
ENDSEC
  0
SECTION
  2
ENTITIES
  0
LINE
  8
0
 10
175
 20
123.5
 11
0
 21
123.5
  0
LINE
  8
0
 10
0
 20
123.5
 11
0
 21
0
  0
LINE
  8
0
 10
0
 20
0
 11
175
 21
0
  0
LINE
  8
0
 10
175
 20
0
 11
175
 21
123.5
  0
LINE
  8
0
 10
5
 20
115.5
 11
170
 21
115.5
  0
LINE
  8
0
 10
170
 20
115.5
 11
170
 21
10
  0
LINE
  8
0
 10
170
 20
10
 11
134
 21
10
  0
LINE
  8
0
 10
134
 20
10
 11
134
 21
13
  0
LINE
  8
0
 10
134
 20
13
 11
5
 21
13
  0
LINE
  8
0
 10
5
 20
13
 11
5
 21
115.5
  0
ENDSEC
  0
SECTION
  2
OBJECTS
  0
DICTIONARY
  0
ENDSEC
  0
EOF
