  0
SECTION
  2
BLOCKS
  0
ENDSEC
  0
SECTION
  2
ENTITIES
  0
LINE
  8
0
 10
5.29404
 20
2.01445
 11
5.58527
 21
2.05765
  0
LINE
  8
0
 10
5.58527
 20
2.05765
 11
5.87085
 21
2.12918
  0
LINE
  8
0
 10
5.87085
 20
2.12918
 11
6.14804
 21
2.22836
  0
LINE
  8
0
 10
6.14804
 20
2.22836
 11
6.41418
 21
2.35425
  0
LINE
  8
0
 10
6.41418
 20
2.35425
 11
6.6667
 21
2.5056
  0
LINE
  8
0
 10
6.6667
 20
2.5056
 11
6.90317
 21
2.68097
  0
LINE
  8
0
 10
6.90317
 20
2.68097
 11
7.12131
 21
2.87869
  0
LINE
  8
0
 10
7.12131
 20
2.87869
 11
7.31903
 21
3.09683
  0
LINE
  8
0
 10
7.31903
 20
3.09683
 11
7.4944
 21
3.3333
  0
LINE
  8
0
 10
7.4944
 20
3.3333
 11
7.64575
 21
3.58582
  0
LINE
  8
0
 10
7.64575
 20
3.58582
 11
7.77164
 21
3.85196
  0
LINE
  8
0
 10
7.77164
 20
3.85196
 11
7.87082
 21
4.12915
  0
LINE
  8
0
 10
7.87082
 20
4.12915
 11
7.94235
 21
4.41473
  0
LINE
  8
0
 10
7.94235
 20
4.41473
 11
7.98555
 21
4.70596
  0
LINE
  8
0
 10
7.98555
 20
4.70596
 11
8
 21
5
  0
LINE
  8
0
 10
8
 20
5
 11
7.98555
 21
5.29404
  0
LINE
  8
0
 10
7.98555
 20
5.29404
 11
7.94235
 21
5.58527
  0
LINE
  8
0
 10
7.94235
 20
5.58527
 11
7.87082
 21
5.87085
  0
LINE
  8
0
 10
7.87082
 20
5.87085
 11
7.77164
 21
6.14804
  0
LINE
  8
0
 10
7.77164
 20
6.14804
 11
7.64575
 21
6.41418
  0
LINE
  8
0
 10
7.64575
 20
6.41418
 11
7.4944
 21
6.6667
  0
LINE
  8
0
 10
7.4944
 20
6.6667
 11
7.31903
 21
6.90317
  0
LINE
  8
0
 10
7.31903
 20
6.90317
 11
7.12131
 21
7.12131
  0
LINE
  8
0
 10
7.12131
 20
7.12131
 11
6.90317
 21
7.31903
  0
LINE
  8
0
 10
6.90317
 20
7.31903
 11
6.6667
 21
7.4944
  0
LINE
  8
0
 10
6.6667
 20
7.4944
 11
6.41418
 21
7.64575
  0
LINE
  8
0
 10
6.41418
 20
7.64575
 11
6.14804
 21
7.77164
  0
LINE
  8
0
 10
6.14804
 20
7.77164
 11
5.87085
 21
7.87082
  0
LINE
  8
0
 10
5.87085
 20
7.87082
 11
5.58527
 21
7.94235
  0
LINE
  8
0
 10
5.58527
 20
7.94235
 11
5.29404
 21
7.98555
  0
LINE
  8
0
 10
5.29404
 20
7.98555
 11
5
 21
8
  0
LINE
  8
0
 10
5
 20
8
 11
4.70596
 21
7.98555
  0
LINE
  8
0
 10
4.70596
 20
7.98555
 11
4.41473
 21
7.94235
  0
LINE
  8
0
 10
4.41473
 20
7.94235
 11
4.12915
 21
7.87082
  0
LINE
  8
0
 10
4.12915
 20
7.87082
 11
3.85196
 21
7.77164
  0
LINE
  8
0
 10
3.85196
 20
7.77164
 11
3.58582
 21
7.64575
  0
LINE
  8
0
 10
3.58582
 20
7.64575
 11
3.3333
 21
7.4944
  0
LINE
  8
0
 10
3.3333
 20
7.4944
 11
3.09683
 21
7.31903
  0
LINE
  8
0
 10
3.09683
 20
7.31903
 11
2.87869
 21
7.12131
  0
LINE
  8
0
 10
2.87869
 20
7.12131
 11
2.68097
 21
6.90317
  0
LINE
  8
0
 10
2.68097
 20
6.90317
 11
2.5056
 21
6.6667
  0
LINE
  8
0
 10
2.5056
 20
6.6667
 11
2.35425
 21
6.41418
  0
LINE
  8
0
 10
2.35425
 20
6.41418
 11
2.22836
 21
6.14804
  0
LINE
  8
0
 10
2.22836
 20
6.14804
 11
2.12918
 21
5.87085
  0
LINE
  8
0
 10
2.12918
 20
5.87085
 11
2.05765
 21
5.58527
  0
LINE
  8
0
 10
2.05765
 20
5.58527
 11
2.01445
 21
5.29404
  0
LINE
  8
0
 10
2.01445
 20
5.29404
 11
2
 21
5
  0
LINE
  8
0
 10
2
 20
5
 11
2.01445
 21
4.70596
  0
LINE
  8
0
 10
2.01445
 20
4.70596
 11
2.05765
 21
4.41473
  0
LINE
  8
0
 10
2.05765
 20
4.41473
 11
2.12918
 21
4.12915
  0
LINE
  8
0
 10
2.12918
 20
4.12915
 11
2.22836
 21
3.85196
  0
LINE
  8
0
 10
2.22836
 20
3.85196
 11
2.35425
 21
3.58582
  0
LINE
  8
0
 10
2.35425
 20
3.58582
 11
2.5056
 21
3.3333
  0
LINE
  8
0
 10
2.5056
 20
3.3333
 11
2.68097
 21
3.09683
  0
LINE
  8
0
 10
2.68097
 20
3.09683
 11
2.87869
 21
2.87869
  0
LINE
  8
0
 10
2.87869
 20
2.87869
 11
3.09683
 21
2.68097
  0
LINE
  8
0
 10
3.09683
 20
2.68097
 11
3.3333
 21
2.5056
  0
LINE
  8
0
 10
3.3333
 20
2.5056
 11
3.58582
 21
2.35425
  0
LINE
  8
0
 10
3.58582
 20
2.35425
 11
3.85196
 21
2.22836
  0
LINE
  8
0
 10
3.85196
 20
2.22836
 11
4.12915
 21
2.12918
  0
LINE
  8
0
 10
4.12915
 20
2.12918
 11
4.41473
 21
2.05765
  0
LINE
  8
0
 10
4.41473
 20
2.05765
 11
4.70596
 21
2.01445
  0
LINE
  8
0
 10
4.70596
 20
2.01445
 11
5
 21
2
  0
LINE
  8
0
 10
5
 20
2
 11
5.29404
 21
2.01445
  0
LINE
  8
0
 10
4.84319
 20
3.40771
 11
4.68787
 21
3.43076
  0
LINE
  8
0
 10
4.68787
 20
3.43076
 11
4.53555
 21
3.4689
  0
LINE
  8
0
 10
4.53555
 20
3.4689
 11
4.38771
 21
3.5218
  0
LINE
  8
0
 10
4.38771
 20
3.5218
 11
4.24577
 21
3.58893
  0
LINE
  8
0
 10
4.24577
 20
3.58893
 11
4.1111
 21
3.66966
  0
LINE
  8
0
 10
4.1111
 20
3.66966
 11
3.98499
 21
3.76318
  0
LINE
  8
0
 10
3.98499
 20
3.76318
 11
3.86864
 21
3.86864
  0
LINE
  8
0
 10
3.86864
 20
3.86864
 11
3.76318
 21
3.98499
  0
LINE
  8
0
 10
3.76318
 20
3.98499
 11
3.66966
 21
4.1111
  0
LINE
  8
0
 10
3.66966
 20
4.1111
 11
3.58893
 21
4.24577
  0
LINE
  8
0
 10
3.58893
 20
4.24577
 11
3.5218
 21
4.38771
  0
LINE
  8
0
 10
3.5218
 20
4.38771
 11
3.4689
 21
4.53555
  0
LINE
  8
0
 10
3.4689
 20
4.53555
 11
3.43076
 21
4.68787
  0
LINE
  8
0
 10
3.43076
 20
4.68787
 11
3.40771
 21
4.84319
  0
LINE
  8
0
 10
3.40771
 20
4.84319
 11
3.40001
 21
5
  0
LINE
  8
0
 10
3.40001
 20
5
 11
3.40771
 21
5.15681
  0
LINE
  8
0
 10
3.40771
 20
5.15681
 11
3.43076
 21
5.31213
  0
LINE
  8
0
 10
3.43076
 20
5.31213
 11
3.4689
 21
5.46445
  0
LINE
  8
0
 10
3.4689
 20
5.46445
 11
3.5218
 21
5.61229
  0
LINE
  8
0
 10
3.5218
 20
5.61229
 11
3.58893
 21
5.75423
  0
LINE
  8
0
 10
3.58893
 20
5.75423
 11
3.66966
 21
5.8889
  0
LINE
  8
0
 10
3.66966
 20
5.8889
 11
3.76318
 21
6.01501
  0
LINE
  8
0
 10
3.76318
 20
6.01501
 11
3.86864
 21
6.13136
  0
LINE
  8
0
 10
3.86864
 20
6.13136
 11
3.98499
 21
6.23682
  0
LINE
  8
0
 10
3.98499
 20
6.23682
 11
4.1111
 21
6.33034
  0
LINE
  8
0
 10
4.1111
 20
6.33034
 11
4.24577
 21
6.41107
  0
LINE
  8
0
 10
4.24577
 20
6.41107
 11
4.38771
 21
6.4782
  0
LINE
  8
0
 10
4.38771
 20
6.4782
 11
4.53555
 21
6.5311
  0
LINE
  8
0
 10
4.53555
 20
6.5311
 11
4.68787
 21
6.56924
  0
LINE
  8
0
 10
4.68787
 20
6.56924
 11
4.84319
 21
6.59229
  0
LINE
  8
0
 10
4.84319
 20
6.59229
 11
5
 21
6.59999
  0
LINE
  8
0
 10
5
 20
6.59999
 11
5.15681
 21
6.59229
  0
LINE
  8
0
 10
5.15681
 20
6.59229
 11
5.31213
 21
6.56924
  0
LINE
  8
0
 10
5.31213
 20
6.56924
 11
5.46445
 21
6.5311
  0
LINE
  8
0
 10
5.46445
 20
6.5311
 11
5.61229
 21
6.4782
  0
LINE
  8
0
 10
5.61229
 20
6.4782
 11
5.75423
 21
6.41107
  0
LINE
  8
0
 10
5.75423
 20
6.41107
 11
5.8889
 21
6.33034
  0
LINE
  8
0
 10
5.8889
 20
6.33034
 11
6.01501
 21
6.23682
  0
LINE
  8
0
 10
6.01501
 20
6.23682
 11
6.13136
 21
6.13136
  0
LINE
  8
0
 10
6.13136
 20
6.13136
 11
6.23682
 21
6.01501
  0
LINE
  8
0
 10
6.23682
 20
6.01501
 11
6.33034
 21
5.8889
  0
LINE
  8
0
 10
6.33034
 20
5.8889
 11
6.41107
 21
5.75423
  0
LINE
  8
0
 10
6.41107
 20
5.75423
 11
6.4782
 21
5.61229
  0
LINE
  8
0
 10
6.4782
 20
5.61229
 11
6.5311
 21
5.46445
  0
LINE
  8
0
 10
6.5311
 20
5.46445
 11
6.56924
 21
5.31213
  0
LINE
  8
0
 10
6.56924
 20
5.31213
 11
6.59229
 21
5.15681
  0
LINE
  8
0
 10
6.59229
 20
5.15681
 11
6.59999
 21
5
  0
LINE
  8
0
 10
6.59999
 20
5
 11
6.59229
 21
4.84319
  0
LINE
  8
0
 10
6.59229
 20
4.84319
 11
6.56924
 21
4.68787
  0
LINE
  8
0
 10
6.56924
 20
4.68787
 11
6.5311
 21
4.53555
  0
LINE
  8
0
 10
6.5311
 20
4.53555
 11
6.4782
 21
4.38771
  0
LINE
  8
0
 10
6.4782
 20
4.38771
 11
6.41107
 21
4.24577
  0
LINE
  8
0
 10
6.41107
 20
4.24577
 11
6.33034
 21
4.1111
  0
LINE
  8
0
 10
6.33034
 20
4.1111
 11
6.23682
 21
3.98499
  0
LINE
  8
0
 10
6.23682
 20
3.98499
 11
6.13136
 21
3.86864
  0
LINE
  8
0
 10
6.13136
 20
3.86864
 11
6.01501
 21
3.76318
  0
LINE
  8
0
 10
6.01501
 20
3.76318
 11
5.8889
 21
3.66966
  0
LINE
  8
0
 10
5.8889
 20
3.66966
 11
5.75423
 21
3.58893
  0
LINE
  8
0
 10
5.75423
 20
3.58893
 11
5.61229
 21
3.5218
  0
LINE
  8
0
 10
5.61229
 20
3.5218
 11
5.46445
 21
3.4689
  0
LINE
  8
0
 10
5.46445
 20
3.4689
 11
5.31213
 21
3.43076
  0
LINE
  8
0
 10
5.31213
 20
3.43076
 11
5.15681
 21
3.40771
  0
LINE
  8
0
 10
5.15681
 20
3.40771
 11
5
 21
3.40001
  0
LINE
  8
0
 10
5
 20
3.40001
 11
4.84319
 21
3.40771
  0
LINE
  8
0
 10
14.294
 20
2.01445
 11
14.5853
 21
2.05765
  0
LINE
  8
0
 10
14.5853
 20
2.05765
 11
14.8708
 21
2.12918
  0
LINE
  8
0
 10
14.8708
 20
2.12918
 11
15.148
 21
2.22836
  0
LINE
  8
0
 10
15.148
 20
2.22836
 11
15.4142
 21
2.35425
  0
LINE
  8
0
 10
15.4142
 20
2.35425
 11
15.6667
 21
2.5056
  0
LINE
  8
0
 10
15.6667
 20
2.5056
 11
15.9032
 21
2.68097
  0
LINE
  8
0
 10
15.9032
 20
2.68097
 11
16.1213
 21
2.87869
  0
LINE
  8
0
 10
16.1213
 20
2.87869
 11
16.319
 21
3.09683
  0
LINE
  8
0
 10
16.319
 20
3.09683
 11
16.4944
 21
3.3333
  0
LINE
  8
0
 10
16.4944
 20
3.3333
 11
16.6458
 21
3.58582
  0
LINE
  8
0
 10
16.6458
 20
3.58582
 11
16.7716
 21
3.85196
  0
LINE
  8
0
 10
16.7716
 20
3.85196
 11
16.8708
 21
4.12915
  0
LINE
  8
0
 10
16.8708
 20
4.12915
 11
16.9424
 21
4.41473
  0
LINE
  8
0
 10
16.9424
 20
4.41473
 11
16.9855
 21
4.70596
  0
LINE
  8
0
 10
16.9855
 20
4.70596
 11
17
 21
5
  0
LINE
  8
0
 10
17
 20
5
 11
16.9855
 21
5.29404
  0
LINE
  8
0
 10
16.9855
 20
5.29404
 11
16.9424
 21
5.58527
  0
LINE
  8
0
 10
16.9424
 20
5.58527
 11
16.8708
 21
5.87085
  0
LINE
  8
0
 10
16.8708
 20
5.87085
 11
16.7716
 21
6.14804
  0
LINE
  8
0
 10
16.7716
 20
6.14804
 11
16.6458
 21
6.41418
  0
LINE
  8
0
 10
16.6458
 20
6.41418
 11
16.4944
 21
6.6667
  0
LINE
  8
0
 10
16.4944
 20
6.6667
 11
16.319
 21
6.90317
  0
LINE
  8
0
 10
16.319
 20
6.90317
 11
16.1213
 21
7.12131
  0
LINE
  8
0
 10
16.1213
 20
7.12131
 11
15.9032
 21
7.31903
  0
LINE
  8
0
 10
15.9032
 20
7.31903
 11
15.6667
 21
7.4944
  0
LINE
  8
0
 10
15.6667
 20
7.4944
 11
15.4142
 21
7.64575
  0
LINE
  8
0
 10
15.4142
 20
7.64575
 11
15.148
 21
7.77164
  0
LINE
  8
0
 10
15.148
 20
7.77164
 11
14.8708
 21
7.87082
  0
LINE
  8
0
 10
14.8708
 20
7.87082
 11
14.5853
 21
7.94235
  0
LINE
  8
0
 10
14.5853
 20
7.94235
 11
14.294
 21
7.98555
  0
LINE
  8
0
 10
14.294
 20
7.98555
 11
14
 21
8
  0
LINE
  8
0
 10
14
 20
8
 11
13.706
 21
7.98555
  0
LINE
  8
0
 10
13.706
 20
7.98555
 11
13.4147
 21
7.94235
  0
LINE
  8
0
 10
13.4147
 20
7.94235
 11
13.1292
 21
7.87082
  0
LINE
  8
0
 10
13.1292
 20
7.87082
 11
12.852
 21
7.77164
  0
LINE
  8
0
 10
12.852
 20
7.77164
 11
12.5858
 21
7.64575
  0
LINE
  8
0
 10
12.5858
 20
7.64575
 11
12.3333
 21
7.4944
  0
LINE
  8
0
 10
12.3333
 20
7.4944
 11
12.0968
 21
7.31903
  0
LINE
  8
0
 10
12.0968
 20
7.31903
 11
11.8787
 21
7.12131
  0
LINE
  8
0
 10
11.8787
 20
7.12131
 11
11.681
 21
6.90317
  0
LINE
  8
0
 10
11.681
 20
6.90317
 11
11.5056
 21
6.6667
  0
LINE
  8
0
 10
11.5056
 20
6.6667
 11
11.3542
 21
6.41418
  0
LINE
  8
0
 10
11.3542
 20
6.41418
 11
11.2284
 21
6.14804
  0
LINE
  8
0
 10
11.2284
 20
6.14804
 11
11.1292
 21
5.87085
  0
LINE
  8
0
 10
11.1292
 20
5.87085
 11
11.0576
 21
5.58527
  0
LINE
  8
0
 10
11.0576
 20
5.58527
 11
11.0145
 21
5.29404
  0
LINE
  8
0
 10
11.0145
 20
5.29404
 11
11
 21
5
  0
LINE
  8
0
 10
11
 20
5
 11
11.0145
 21
4.70596
  0
LINE
  8
0
 10
11.0145
 20
4.70596
 11
11.0576
 21
4.41473
  0
LINE
  8
0
 10
11.0576
 20
4.41473
 11
11.1292
 21
4.12915
  0
LINE
  8
0
 10
11.1292
 20
4.12915
 11
11.2284
 21
3.85196
  0
LINE
  8
0
 10
11.2284
 20
3.85196
 11
11.3542
 21
3.58582
  0
LINE
  8
0
 10
11.3542
 20
3.58582
 11
11.5056
 21
3.3333
  0
LINE
  8
0
 10
11.5056
 20
3.3333
 11
11.681
 21
3.09683
  0
LINE
  8
0
 10
11.681
 20
3.09683
 11
11.8787
 21
2.87869
  0
LINE
  8
0
 10
11.8787
 20
2.87869
 11
12.0968
 21
2.68097
  0
LINE
  8
0
 10
12.0968
 20
2.68097
 11
12.3333
 21
2.5056
  0
LINE
  8
0
 10
12.3333
 20
2.5056
 11
12.5858
 21
2.35425
  0
LINE
  8
0
 10
12.5858
 20
2.35425
 11
12.852
 21
2.22836
  0
LINE
  8
0
 10
12.852
 20
2.22836
 11
13.1292
 21
2.12918
  0
LINE
  8
0
 10
13.1292
 20
2.12918
 11
13.4147
 21
2.05765
  0
LINE
  8
0
 10
13.4147
 20
2.05765
 11
13.706
 21
2.01445
  0
LINE
  8
0
 10
13.706
 20
2.01445
 11
14
 21
2
  0
LINE
  8
0
 10
14
 20
2
 11
14.294
 21
2.01445
  0
LINE
  8
0
 10
13.8432
 20
3.40771
 11
13.6879
 21
3.43076
  0
LINE
  8
0
 10
13.6879
 20
3.43076
 11
13.5356
 21
3.4689
  0
LINE
  8
0
 10
13.5356
 20
3.4689
 11
13.3877
 21
3.5218
  0
LINE
  8
0
 10
13.3877
 20
3.5218
 11
13.2458
 21
3.58893
  0
LINE
  8
0
 10
13.2458
 20
3.58893
 11
13.1111
 21
3.66966
  0
LINE
  8
0
 10
13.1111
 20
3.66966
 11
12.985
 21
3.76318
  0
LINE
  8
0
 10
12.985
 20
3.76318
 11
12.8686
 21
3.86864
  0
LINE
  8
0
 10
12.8686
 20
3.86864
 11
12.7632
 21
3.98499
  0
LINE
  8
0
 10
12.7632
 20
3.98499
 11
12.6697
 21
4.1111
  0
LINE
  8
0
 10
12.6697
 20
4.1111
 11
12.5889
 21
4.24577
  0
LINE
  8
0
 10
12.5889
 20
4.24577
 11
12.5218
 21
4.38771
  0
LINE
  8
0
 10
12.5218
 20
4.38771
 11
12.4689
 21
4.53555
  0
LINE
  8
0
 10
12.4689
 20
4.53555
 11
12.4308
 21
4.68787
  0
LINE
  8
0
 10
12.4308
 20
4.68787
 11
12.4077
 21
4.84319
  0
LINE
  8
0
 10
12.4077
 20
4.84319
 11
12.4
 21
5
  0
LINE
  8
0
 10
12.4
 20
5
 11
12.4077
 21
5.15681
  0
LINE
  8
0
 10
12.4077
 20
5.15681
 11
12.4308
 21
5.31213
  0
LINE
  8
0
 10
12.4308
 20
5.31213
 11
12.4689
 21
5.46445
  0
LINE
  8
0
 10
12.4689
 20
5.46445
 11
12.5218
 21
5.61229
  0
LINE
  8
0
 10
12.5218
 20
5.61229
 11
12.5889
 21
5.75423
  0
LINE
  8
0
 10
12.5889
 20
5.75423
 11
12.6697
 21
5.8889
  0
LINE
  8
0
 10
12.6697
 20
5.8889
 11
12.7632
 21
6.01501
  0
LINE
  8
0
 10
12.7632
 20
6.01501
 11
12.8686
 21
6.13136
  0
LINE
  8
0
 10
12.8686
 20
6.13136
 11
12.985
 21
6.23682
  0
LINE
  8
0
 10
12.985
 20
6.23682
 11
13.1111
 21
6.33034
  0
LINE
  8
0
 10
13.1111
 20
6.33034
 11
13.2458
 21
6.41107
  0
LINE
  8
0
 10
13.2458
 20
6.41107
 11
13.3877
 21
6.4782
  0
LINE
  8
0
 10
13.3877
 20
6.4782
 11
13.5356
 21
6.5311
  0
LINE
  8
0
 10
13.5356
 20
6.5311
 11
13.6879
 21
6.56924
  0
LINE
  8
0
 10
13.6879
 20
6.56924
 11
13.8432
 21
6.59229
  0
LINE
  8
0
 10
13.8432
 20
6.59229
 11
14
 21
6.59999
  0
LINE
  8
0
 10
14
 20
6.59999
 11
14.1568
 21
6.59229
  0
LINE
  8
0
 10
14.1568
 20
6.59229
 11
14.3121
 21
6.56924
  0
LINE
  8
0
 10
14.3121
 20
6.56924
 11
14.4644
 21
6.5311
  0
LINE
  8
0
 10
14.4644
 20
6.5311
 11
14.6123
 21
6.4782
  0
LINE
  8
0
 10
14.6123
 20
6.4782
 11
14.7542
 21
6.41107
  0
LINE
  8
0
 10
14.7542
 20
6.41107
 11
14.8889
 21
6.33034
  0
LINE
  8
0
 10
14.8889
 20
6.33034
 11
15.015
 21
6.23682
  0
LINE
  8
0
 10
15.015
 20
6.23682
 11
15.1314
 21
6.13136
  0
LINE
  8
0
 10
15.1314
 20
6.13136
 11
15.2368
 21
6.01501
  0
LINE
  8
0
 10
15.2368
 20
6.01501
 11
15.3303
 21
5.8889
  0
LINE
  8
0
 10
15.3303
 20
5.8889
 11
15.4111
 21
5.75423
  0
LINE
  8
0
 10
15.4111
 20
5.75423
 11
15.4782
 21
5.61229
  0
LINE
  8
0
 10
15.4782
 20
5.61229
 11
15.5311
 21
5.46445
  0
LINE
  8
0
 10
15.5311
 20
5.46445
 11
15.5692
 21
5.31213
  0
LINE
  8
0
 10
15.5692
 20
5.31213
 11
15.5923
 21
5.15681
  0
LINE
  8
0
 10
15.5923
 20
5.15681
 11
15.6
 21
5
  0
LINE
  8
0
 10
15.6
 20
5
 11
15.5923
 21
4.84319
  0
LINE
  8
0
 10
15.5923
 20
4.84319
 11
15.5692
 21
4.68787
  0
LINE
  8
0
 10
15.5692
 20
4.68787
 11
15.5311
 21
4.53555
  0
LINE
  8
0
 10
15.5311
 20
4.53555
 11
15.4782
 21
4.38771
  0
LINE
  8
0
 10
15.4782
 20
4.38771
 11
15.4111
 21
4.24577
  0
LINE
  8
0
 10
15.4111
 20
4.24577
 11
15.3303
 21
4.1111
  0
LINE
  8
0
 10
15.3303
 20
4.1111
 11
15.2368
 21
3.98499
  0
LINE
  8
0
 10
15.2368
 20
3.98499
 11
15.1314
 21
3.86864
  0
LINE
  8
0
 10
15.1314
 20
3.86864
 11
15.015
 21
3.76318
  0
LINE
  8
0
 10
15.015
 20
3.76318
 11
14.8889
 21
3.66966
  0
LINE
  8
0
 10
14.8889
 20
3.66966
 11
14.7542
 21
3.58893
  0
LINE
  8
0
 10
14.7542
 20
3.58893
 11
14.6123
 21
3.5218
  0
LINE
  8
0
 10
14.6123
 20
3.5218
 11
14.4644
 21
3.4689
  0
LINE
  8
0
 10
14.4644
 20
3.4689
 11
14.3121
 21
3.43076
  0
LINE
  8
0
 10
14.3121
 20
3.43076
 11
14.1568
 21
3.40771
  0
LINE
  8
0
 10
14.1568
 20
3.40771
 11
14
 21
3.40001
  0
LINE
  8
0
 10
14
 20
3.40001
 11
13.8432
 21
3.40771
  0
LINE
  8
0
 10
23.294
 20
2.01445
 11
23.5853
 21
2.05765
  0
LINE
  8
0
 10
23.5853
 20
2.05765
 11
23.8708
 21
2.12918
  0
LINE
  8
0
 10
23.8708
 20
2.12918
 11
24.148
 21
2.22836
  0
LINE
  8
0
 10
24.148
 20
2.22836
 11
24.4142
 21
2.35425
  0
LINE
  8
0
 10
24.4142
 20
2.35425
 11
24.6667
 21
2.5056
  0
LINE
  8
0
 10
24.6667
 20
2.5056
 11
24.9032
 21
2.68097
  0
LINE
  8
0
 10
24.9032
 20
2.68097
 11
25.1213
 21
2.87869
  0
LINE
  8
0
 10
25.1213
 20
2.87869
 11
25.319
 21
3.09683
  0
LINE
  8
0
 10
25.319
 20
3.09683
 11
25.4944
 21
3.3333
  0
LINE
  8
0
 10
25.4944
 20
3.3333
 11
25.6458
 21
3.58582
  0
LINE
  8
0
 10
25.6458
 20
3.58582
 11
25.7716
 21
3.85196
  0
LINE
  8
0
 10
25.7716
 20
3.85196
 11
25.8708
 21
4.12915
  0
LINE
  8
0
 10
25.8708
 20
4.12915
 11
25.9424
 21
4.41473
  0
LINE
  8
0
 10
25.9424
 20
4.41473
 11
25.9855
 21
4.70596
  0
LINE
  8
0
 10
25.9855
 20
4.70596
 11
26
 21
5
  0
LINE
  8
0
 10
26
 20
5
 11
25.9855
 21
5.29404
  0
LINE
  8
0
 10
25.9855
 20
5.29404
 11
25.9424
 21
5.58527
  0
LINE
  8
0
 10
25.9424
 20
5.58527
 11
25.8708
 21
5.87085
  0
LINE
  8
0
 10
25.8708
 20
5.87085
 11
25.7716
 21
6.14804
  0
LINE
  8
0
 10
25.7716
 20
6.14804
 11
25.6458
 21
6.41418
  0
LINE
  8
0
 10
25.6458
 20
6.41418
 11
25.4944
 21
6.6667
  0
LINE
  8
0
 10
25.4944
 20
6.6667
 11
25.319
 21
6.90317
  0
LINE
  8
0
 10
25.319
 20
6.90317
 11
25.1213
 21
7.12131
  0
LINE
  8
0
 10
25.1213
 20
7.12131
 11
24.9032
 21
7.31903
  0
LINE
  8
0
 10
24.9032
 20
7.31903
 11
24.6667
 21
7.4944
  0
LINE
  8
0
 10
24.6667
 20
7.4944
 11
24.4142
 21
7.64575
  0
LINE
  8
0
 10
24.4142
 20
7.64575
 11
24.148
 21
7.77164
  0
LINE
  8
0
 10
24.148
 20
7.77164
 11
23.8708
 21
7.87082
  0
LINE
  8
0
 10
23.8708
 20
7.87082
 11
23.5853
 21
7.94235
  0
LINE
  8
0
 10
23.5853
 20
7.94235
 11
23.294
 21
7.98555
  0
LINE
  8
0
 10
23.294
 20
7.98555
 11
23
 21
8
  0
LINE
  8
0
 10
23
 20
8
 11
22.706
 21
7.98555
  0
LINE
  8
0
 10
22.706
 20
7.98555
 11
22.4147
 21
7.94235
  0
LINE
  8
0
 10
22.4147
 20
7.94235
 11
22.1292
 21
7.87082
  0
LINE
  8
0
 10
22.1292
 20
7.87082
 11
21.852
 21
7.77164
  0
LINE
  8
0
 10
21.852
 20
7.77164
 11
21.5858
 21
7.64575
  0
LINE
  8
0
 10
21.5858
 20
7.64575
 11
21.3333
 21
7.4944
  0
LINE
  8
0
 10
21.3333
 20
7.4944
 11
21.0968
 21
7.31903
  0
LINE
  8
0
 10
21.0968
 20
7.31903
 11
20.8787
 21
7.12131
  0
LINE
  8
0
 10
20.8787
 20
7.12131
 11
20.681
 21
6.90317
  0
LINE
  8
0
 10
20.681
 20
6.90317
 11
20.5056
 21
6.6667
  0
LINE
  8
0
 10
20.5056
 20
6.6667
 11
20.3542
 21
6.41418
  0
LINE
  8
0
 10
20.3542
 20
6.41418
 11
20.2284
 21
6.14804
  0
LINE
  8
0
 10
20.2284
 20
6.14804
 11
20.1292
 21
5.87085
  0
LINE
  8
0
 10
20.1292
 20
5.87085
 11
20.0576
 21
5.58527
  0
LINE
  8
0
 10
20.0576
 20
5.58527
 11
20.0145
 21
5.29404
  0
LINE
  8
0
 10
20.0145
 20
5.29404
 11
20
 21
5
  0
LINE
  8
0
 10
20
 20
5
 11
20.0145
 21
4.70596
  0
LINE
  8
0
 10
20.0145
 20
4.70596
 11
20.0576
 21
4.41473
  0
LINE
  8
0
 10
20.0576
 20
4.41473
 11
20.1292
 21
4.12915
  0
LINE
  8
0
 10
20.1292
 20
4.12915
 11
20.2284
 21
3.85196
  0
LINE
  8
0
 10
20.2284
 20
3.85196
 11
20.3542
 21
3.58582
  0
LINE
  8
0
 10
20.3542
 20
3.58582
 11
20.5056
 21
3.3333
  0
LINE
  8
0
 10
20.5056
 20
3.3333
 11
20.681
 21
3.09683
  0
LINE
  8
0
 10
20.681
 20
3.09683
 11
20.8787
 21
2.87869
  0
LINE
  8
0
 10
20.8787
 20
2.87869
 11
21.0968
 21
2.68097
  0
LINE
  8
0
 10
21.0968
 20
2.68097
 11
21.3333
 21
2.5056
  0
LINE
  8
0
 10
21.3333
 20
2.5056
 11
21.5858
 21
2.35425
  0
LINE
  8
0
 10
21.5858
 20
2.35425
 11
21.852
 21
2.22836
  0
LINE
  8
0
 10
21.852
 20
2.22836
 11
22.1292
 21
2.12918
  0
LINE
  8
0
 10
22.1292
 20
2.12918
 11
22.4147
 21
2.05765
  0
LINE
  8
0
 10
22.4147
 20
2.05765
 11
22.706
 21
2.01445
  0
LINE
  8
0
 10
22.706
 20
2.01445
 11
23
 21
2
  0
LINE
  8
0
 10
23
 20
2
 11
23.294
 21
2.01445
  0
LINE
  8
0
 10
22.8432
 20
3.40771
 11
22.6879
 21
3.43076
  0
LINE
  8
0
 10
22.6879
 20
3.43076
 11
22.5356
 21
3.4689
  0
LINE
  8
0
 10
22.5356
 20
3.4689
 11
22.3877
 21
3.5218
  0
LINE
  8
0
 10
22.3877
 20
3.5218
 11
22.2458
 21
3.58893
  0
LINE
  8
0
 10
22.2458
 20
3.58893
 11
22.1111
 21
3.66966
  0
LINE
  8
0
 10
22.1111
 20
3.66966
 11
21.985
 21
3.76318
  0
LINE
  8
0
 10
21.985
 20
3.76318
 11
21.8686
 21
3.86864
  0
LINE
  8
0
 10
21.8686
 20
3.86864
 11
21.7632
 21
3.98499
  0
LINE
  8
0
 10
21.7632
 20
3.98499
 11
21.6697
 21
4.1111
  0
LINE
  8
0
 10
21.6697
 20
4.1111
 11
21.5889
 21
4.24577
  0
LINE
  8
0
 10
21.5889
 20
4.24577
 11
21.5218
 21
4.38771
  0
LINE
  8
0
 10
21.5218
 20
4.38771
 11
21.4689
 21
4.53555
  0
LINE
  8
0
 10
21.4689
 20
4.53555
 11
21.4308
 21
4.68787
  0
LINE
  8
0
 10
21.4308
 20
4.68787
 11
21.4077
 21
4.84319
  0
LINE
  8
0
 10
21.4077
 20
4.84319
 11
21.4
 21
5
  0
LINE
  8
0
 10
21.4
 20
5
 11
21.4077
 21
5.15681
  0
LINE
  8
0
 10
21.4077
 20
5.15681
 11
21.4308
 21
5.31213
  0
LINE
  8
0
 10
21.4308
 20
5.31213
 11
21.4689
 21
5.46445
  0
LINE
  8
0
 10
21.4689
 20
5.46445
 11
21.5218
 21
5.61229
  0
LINE
  8
0
 10
21.5218
 20
5.61229
 11
21.5889
 21
5.75423
  0
LINE
  8
0
 10
21.5889
 20
5.75423
 11
21.6697
 21
5.8889
  0
LINE
  8
0
 10
21.6697
 20
5.8889
 11
21.7632
 21
6.01501
  0
LINE
  8
0
 10
21.7632
 20
6.01501
 11
21.8686
 21
6.13136
  0
LINE
  8
0
 10
21.8686
 20
6.13136
 11
21.985
 21
6.23682
  0
LINE
  8
0
 10
21.985
 20
6.23682
 11
22.1111
 21
6.33034
  0
LINE
  8
0
 10
22.1111
 20
6.33034
 11
22.2458
 21
6.41107
  0
LINE
  8
0
 10
22.2458
 20
6.41107
 11
22.3877
 21
6.4782
  0
LINE
  8
0
 10
22.3877
 20
6.4782
 11
22.5356
 21
6.5311
  0
LINE
  8
0
 10
22.5356
 20
6.5311
 11
22.6879
 21
6.56924
  0
LINE
  8
0
 10
22.6879
 20
6.56924
 11
22.8432
 21
6.59229
  0
LINE
  8
0
 10
22.8432
 20
6.59229
 11
23
 21
6.59999
  0
LINE
  8
0
 10
23
 20
6.59999
 11
23.1568
 21
6.59229
  0
LINE
  8
0
 10
23.1568
 20
6.59229
 11
23.3121
 21
6.56924
  0
LINE
  8
0
 10
23.3121
 20
6.56924
 11
23.4644
 21
6.5311
  0
LINE
  8
0
 10
23.4644
 20
6.5311
 11
23.6123
 21
6.4782
  0
LINE
  8
0
 10
23.6123
 20
6.4782
 11
23.7542
 21
6.41107
  0
LINE
  8
0
 10
23.7542
 20
6.41107
 11
23.8889
 21
6.33034
  0
LINE
  8
0
 10
23.8889
 20
6.33034
 11
24.015
 21
6.23682
  0
LINE
  8
0
 10
24.015
 20
6.23682
 11
24.1314
 21
6.13136
  0
LINE
  8
0
 10
24.1314
 20
6.13136
 11
24.2368
 21
6.01501
  0
LINE
  8
0
 10
24.2368
 20
6.01501
 11
24.3303
 21
5.8889
  0
LINE
  8
0
 10
24.3303
 20
5.8889
 11
24.4111
 21
5.75423
  0
LINE
  8
0
 10
24.4111
 20
5.75423
 11
24.4782
 21
5.61229
  0
LINE
  8
0
 10
24.4782
 20
5.61229
 11
24.5311
 21
5.46445
  0
LINE
  8
0
 10
24.5311
 20
5.46445
 11
24.5692
 21
5.31213
  0
LINE
  8
0
 10
24.5692
 20
5.31213
 11
24.5923
 21
5.15681
  0
LINE
  8
0
 10
24.5923
 20
5.15681
 11
24.6
 21
5
  0
LINE
  8
0
 10
24.6
 20
5
 11
24.5923
 21
4.84319
  0
LINE
  8
0
 10
24.5923
 20
4.84319
 11
24.5692
 21
4.68787
  0
LINE
  8
0
 10
24.5692
 20
4.68787
 11
24.5311
 21
4.53555
  0
LINE
  8
0
 10
24.5311
 20
4.53555
 11
24.4782
 21
4.38771
  0
LINE
  8
0
 10
24.4782
 20
4.38771
 11
24.4111
 21
4.24577
  0
LINE
  8
0
 10
24.4111
 20
4.24577
 11
24.3303
 21
4.1111
  0
LINE
  8
0
 10
24.3303
 20
4.1111
 11
24.2368
 21
3.98499
  0
LINE
  8
0
 10
24.2368
 20
3.98499
 11
24.1314
 21
3.86864
  0
LINE
  8
0
 10
24.1314
 20
3.86864
 11
24.015
 21
3.76318
  0
LINE
  8
0
 10
24.015
 20
3.76318
 11
23.8889
 21
3.66966
  0
LINE
  8
0
 10
23.8889
 20
3.66966
 11
23.7542
 21
3.58893
  0
LINE
  8
0
 10
23.7542
 20
3.58893
 11
23.6123
 21
3.5218
  0
LINE
  8
0
 10
23.6123
 20
3.5218
 11
23.4644
 21
3.4689
  0
LINE
  8
0
 10
23.4644
 20
3.4689
 11
23.3121
 21
3.43076
  0
LINE
  8
0
 10
23.3121
 20
3.43076
 11
23.1568
 21
3.40771
  0
LINE
  8
0
 10
23.1568
 20
3.40771
 11
23
 21
3.40001
  0
LINE
  8
0
 10
23
 20
3.40001
 11
22.8432
 21
3.40771
  0
LINE
  8
0
 10
32.294
 20
2.01445
 11
32.5853
 21
2.05765
  0
LINE
  8
0
 10
32.5853
 20
2.05765
 11
32.8708
 21
2.12918
  0
LINE
  8
0
 10
32.8708
 20
2.12918
 11
33.148
 21
2.22836
  0
LINE
  8
0
 10
33.148
 20
2.22836
 11
33.4142
 21
2.35425
  0
LINE
  8
0
 10
33.4142
 20
2.35425
 11
33.6667
 21
2.5056
  0
LINE
  8
0
 10
33.6667
 20
2.5056
 11
33.9032
 21
2.68097
  0
LINE
  8
0
 10
33.9032
 20
2.68097
 11
34.1213
 21
2.87869
  0
LINE
  8
0
 10
34.1213
 20
2.87869
 11
34.319
 21
3.09683
  0
LINE
  8
0
 10
34.319
 20
3.09683
 11
34.4944
 21
3.3333
  0
LINE
  8
0
 10
34.4944
 20
3.3333
 11
34.6458
 21
3.58582
  0
LINE
  8
0
 10
34.6458
 20
3.58582
 11
34.7716
 21
3.85196
  0
LINE
  8
0
 10
34.7716
 20
3.85196
 11
34.8708
 21
4.12915
  0
LINE
  8
0
 10
34.8708
 20
4.12915
 11
34.9424
 21
4.41473
  0
LINE
  8
0
 10
34.9424
 20
4.41473
 11
34.9855
 21
4.70596
  0
LINE
  8
0
 10
34.9855
 20
4.70596
 11
35
 21
5
  0
LINE
  8
0
 10
35
 20
5
 11
34.9855
 21
5.29404
  0
LINE
  8
0
 10
34.9855
 20
5.29404
 11
34.9424
 21
5.58527
  0
LINE
  8
0
 10
34.9424
 20
5.58527
 11
34.8708
 21
5.87085
  0
LINE
  8
0
 10
34.8708
 20
5.87085
 11
34.7716
 21
6.14804
  0
LINE
  8
0
 10
34.7716
 20
6.14804
 11
34.6458
 21
6.41418
  0
LINE
  8
0
 10
34.6458
 20
6.41418
 11
34.4944
 21
6.6667
  0
LINE
  8
0
 10
34.4944
 20
6.6667
 11
34.319
 21
6.90317
  0
LINE
  8
0
 10
34.319
 20
6.90317
 11
34.1213
 21
7.12131
  0
LINE
  8
0
 10
34.1213
 20
7.12131
 11
33.9032
 21
7.31903
  0
LINE
  8
0
 10
33.9032
 20
7.31903
 11
33.6667
 21
7.4944
  0
LINE
  8
0
 10
33.6667
 20
7.4944
 11
33.4142
 21
7.64575
  0
LINE
  8
0
 10
33.4142
 20
7.64575
 11
33.148
 21
7.77164
  0
LINE
  8
0
 10
33.148
 20
7.77164
 11
32.8708
 21
7.87082
  0
LINE
  8
0
 10
32.8708
 20
7.87082
 11
32.5853
 21
7.94235
  0
LINE
  8
0
 10
32.5853
 20
7.94235
 11
32.294
 21
7.98555
  0
LINE
  8
0
 10
32.294
 20
7.98555
 11
32
 21
8
  0
LINE
  8
0
 10
32
 20
8
 11
31.706
 21
7.98555
  0
LINE
  8
0
 10
31.706
 20
7.98555
 11
31.4147
 21
7.94235
  0
LINE
  8
0
 10
31.4147
 20
7.94235
 11
31.1292
 21
7.87082
  0
LINE
  8
0
 10
31.1292
 20
7.87082
 11
30.852
 21
7.77164
  0
LINE
  8
0
 10
30.852
 20
7.77164
 11
30.5858
 21
7.64575
  0
LINE
  8
0
 10
30.5858
 20
7.64575
 11
30.3333
 21
7.4944
  0
LINE
  8
0
 10
30.3333
 20
7.4944
 11
30.0968
 21
7.31903
  0
LINE
  8
0
 10
30.0968
 20
7.31903
 11
29.8787
 21
7.12131
  0
LINE
  8
0
 10
29.8787
 20
7.12131
 11
29.681
 21
6.90317
  0
LINE
  8
0
 10
29.681
 20
6.90317
 11
29.5056
 21
6.6667
  0
LINE
  8
0
 10
29.5056
 20
6.6667
 11
29.3542
 21
6.41418
  0
LINE
  8
0
 10
29.3542
 20
6.41418
 11
29.2284
 21
6.14804
  0
LINE
  8
0
 10
29.2284
 20
6.14804
 11
29.1292
 21
5.87085
  0
LINE
  8
0
 10
29.1292
 20
5.87085
 11
29.0576
 21
5.58527
  0
LINE
  8
0
 10
29.0576
 20
5.58527
 11
29.0145
 21
5.29404
  0
LINE
  8
0
 10
29.0145
 20
5.29404
 11
29
 21
5
  0
LINE
  8
0
 10
29
 20
5
 11
29.0145
 21
4.70596
  0
LINE
  8
0
 10
29.0145
 20
4.70596
 11
29.0576
 21
4.41473
  0
LINE
  8
0
 10
29.0576
 20
4.41473
 11
29.1292
 21
4.12915
  0
LINE
  8
0
 10
29.1292
 20
4.12915
 11
29.2284
 21
3.85196
  0
LINE
  8
0
 10
29.2284
 20
3.85196
 11
29.3542
 21
3.58582
  0
LINE
  8
0
 10
29.3542
 20
3.58582
 11
29.5056
 21
3.3333
  0
LINE
  8
0
 10
29.5056
 20
3.3333
 11
29.681
 21
3.09683
  0
LINE
  8
0
 10
29.681
 20
3.09683
 11
29.8787
 21
2.87869
  0
LINE
  8
0
 10
29.8787
 20
2.87869
 11
30.0968
 21
2.68097
  0
LINE
  8
0
 10
30.0968
 20
2.68097
 11
30.3333
 21
2.5056
  0
LINE
  8
0
 10
30.3333
 20
2.5056
 11
30.5858
 21
2.35425
  0
LINE
  8
0
 10
30.5858
 20
2.35425
 11
30.852
 21
2.22836
  0
LINE
  8
0
 10
30.852
 20
2.22836
 11
31.1292
 21
2.12918
  0
LINE
  8
0
 10
31.1292
 20
2.12918
 11
31.4147
 21
2.05765
  0
LINE
  8
0
 10
31.4147
 20
2.05765
 11
31.706
 21
2.01445
  0
LINE
  8
0
 10
31.706
 20
2.01445
 11
32
 21
2
  0
LINE
  8
0
 10
32
 20
2
 11
32.294
 21
2.01445
  0
LINE
  8
0
 10
31.8432
 20
3.40771
 11
31.6879
 21
3.43076
  0
LINE
  8
0
 10
31.6879
 20
3.43076
 11
31.5356
 21
3.4689
  0
LINE
  8
0
 10
31.5356
 20
3.4689
 11
31.3877
 21
3.5218
  0
LINE
  8
0
 10
31.3877
 20
3.5218
 11
31.2458
 21
3.58893
  0
LINE
  8
0
 10
31.2458
 20
3.58893
 11
31.1111
 21
3.66966
  0
LINE
  8
0
 10
31.1111
 20
3.66966
 11
30.985
 21
3.76318
  0
LINE
  8
0
 10
30.985
 20
3.76318
 11
30.8686
 21
3.86864
  0
LINE
  8
0
 10
30.8686
 20
3.86864
 11
30.7632
 21
3.98499
  0
LINE
  8
0
 10
30.7632
 20
3.98499
 11
30.6697
 21
4.1111
  0
LINE
  8
0
 10
30.6697
 20
4.1111
 11
30.5889
 21
4.24577
  0
LINE
  8
0
 10
30.5889
 20
4.24577
 11
30.5218
 21
4.38771
  0
LINE
  8
0
 10
30.5218
 20
4.38771
 11
30.4689
 21
4.53555
  0
LINE
  8
0
 10
30.4689
 20
4.53555
 11
30.4308
 21
4.68787
  0
LINE
  8
0
 10
30.4308
 20
4.68787
 11
30.4077
 21
4.84319
  0
LINE
  8
0
 10
30.4077
 20
4.84319
 11
30.4
 21
5
  0
LINE
  8
0
 10
30.4
 20
5
 11
30.4077
 21
5.15681
  0
LINE
  8
0
 10
30.4077
 20
5.15681
 11
30.4308
 21
5.31213
  0
LINE
  8
0
 10
30.4308
 20
5.31213
 11
30.4689
 21
5.46445
  0
LINE
  8
0
 10
30.4689
 20
5.46445
 11
30.5218
 21
5.61229
  0
LINE
  8
0
 10
30.5218
 20
5.61229
 11
30.5889
 21
5.75423
  0
LINE
  8
0
 10
30.5889
 20
5.75423
 11
30.6697
 21
5.8889
  0
LINE
  8
0
 10
30.6697
 20
5.8889
 11
30.7632
 21
6.01501
  0
LINE
  8
0
 10
30.7632
 20
6.01501
 11
30.8686
 21
6.13136
  0
LINE
  8
0
 10
30.8686
 20
6.13136
 11
30.985
 21
6.23682
  0
LINE
  8
0
 10
30.985
 20
6.23682
 11
31.1111
 21
6.33034
  0
LINE
  8
0
 10
31.1111
 20
6.33034
 11
31.2458
 21
6.41107
  0
LINE
  8
0
 10
31.2458
 20
6.41107
 11
31.3877
 21
6.4782
  0
LINE
  8
0
 10
31.3877
 20
6.4782
 11
31.5356
 21
6.5311
  0
LINE
  8
0
 10
31.5356
 20
6.5311
 11
31.6879
 21
6.56924
  0
LINE
  8
0
 10
31.6879
 20
6.56924
 11
31.8432
 21
6.59229
  0
LINE
  8
0
 10
31.8432
 20
6.59229
 11
32
 21
6.59999
  0
LINE
  8
0
 10
32
 20
6.59999
 11
32.1568
 21
6.59229
  0
LINE
  8
0
 10
32.1568
 20
6.59229
 11
32.3121
 21
6.56924
  0
LINE
  8
0
 10
32.3121
 20
6.56924
 11
32.4644
 21
6.5311
  0
LINE
  8
0
 10
32.4644
 20
6.5311
 11
32.6123
 21
6.4782
  0
LINE
  8
0
 10
32.6123
 20
6.4782
 11
32.7542
 21
6.41107
  0
LINE
  8
0
 10
32.7542
 20
6.41107
 11
32.8889
 21
6.33034
  0
LINE
  8
0
 10
32.8889
 20
6.33034
 11
33.015
 21
6.23682
  0
LINE
  8
0
 10
33.015
 20
6.23682
 11
33.1314
 21
6.13136
  0
LINE
  8
0
 10
33.1314
 20
6.13136
 11
33.2368
 21
6.01501
  0
LINE
  8
0
 10
33.2368
 20
6.01501
 11
33.3303
 21
5.8889
  0
LINE
  8
0
 10
33.3303
 20
5.8889
 11
33.4111
 21
5.75423
  0
LINE
  8
0
 10
33.4111
 20
5.75423
 11
33.4782
 21
5.61229
  0
LINE
  8
0
 10
33.4782
 20
5.61229
 11
33.5311
 21
5.46445
  0
LINE
  8
0
 10
33.5311
 20
5.46445
 11
33.5692
 21
5.31213
  0
LINE
  8
0
 10
33.5692
 20
5.31213
 11
33.5923
 21
5.15681
  0
LINE
  8
0
 10
33.5923
 20
5.15681
 11
33.6
 21
5
  0
LINE
  8
0
 10
33.6
 20
5
 11
33.5923
 21
4.84319
  0
LINE
  8
0
 10
33.5923
 20
4.84319
 11
33.5692
 21
4.68787
  0
LINE
  8
0
 10
33.5692
 20
4.68787
 11
33.5311
 21
4.53555
  0
LINE
  8
0
 10
33.5311
 20
4.53555
 11
33.4782
 21
4.38771
  0
LINE
  8
0
 10
33.4782
 20
4.38771
 11
33.4111
 21
4.24577
  0
LINE
  8
0
 10
33.4111
 20
4.24577
 11
33.3303
 21
4.1111
  0
LINE
  8
0
 10
33.3303
 20
4.1111
 11
33.2368
 21
3.98499
  0
LINE
  8
0
 10
33.2368
 20
3.98499
 11
33.1314
 21
3.86864
  0
LINE
  8
0
 10
33.1314
 20
3.86864
 11
33.015
 21
3.76318
  0
LINE
  8
0
 10
33.015
 20
3.76318
 11
32.8889
 21
3.66966
  0
LINE
  8
0
 10
32.8889
 20
3.66966
 11
32.7542
 21
3.58893
  0
LINE
  8
0
 10
32.7542
 20
3.58893
 11
32.6123
 21
3.5218
  0
LINE
  8
0
 10
32.6123
 20
3.5218
 11
32.4644
 21
3.4689
  0
LINE
  8
0
 10
32.4644
 20
3.4689
 11
32.3121
 21
3.43076
  0
LINE
  8
0
 10
32.3121
 20
3.43076
 11
32.1568
 21
3.40771
  0
LINE
  8
0
 10
32.1568
 20
3.40771
 11
32
 21
3.40001
  0
LINE
  8
0
 10
32
 20
3.40001
 11
31.8432
 21
3.40771
  0
ENDSEC
  0
SECTION
  2
OBJECTS
  0
DICTIONARY
  0
ENDSEC
  0
EOF
