  0
SECTION
  2
BLOCKS
  0
ENDSEC
  0
SECTION
  2
ENTITIES
  0
LINE
  8
0
 10
14
 20
185
 11
0
 21
185
  0
LINE
  8
0
 10
0
 20
185
 11
0
 21
175
  0
LINE
  8
0
 10
0
 20
175
 11
4
 21
175
  0
LINE
  8
0
 10
4
 20
175
 11
4
 21
10
  0
LINE
  8
0
 10
4
 20
10
 11
0
 21
10
  0
LINE
  8
0
 10
0
 20
10
 11
0
 21
0
  0
LINE
  8
0
 10
0
 20
0
 11
14
 21
0
  0
LINE
  8
0
 10
14
 20
0
 11
14
 21
185
  0
LINE
  8
0
 10
8.87747
 20
173.756
 11
8.75613
 21
173.774
  0
LINE
  8
0
 10
8.75613
 20
173.774
 11
8.63713
 21
173.804
  0
LINE
  8
0
 10
8.63713
 20
173.804
 11
8.52164
 21
173.845
  0
LINE
  8
0
 10
8.52164
 20
173.845
 11
8.41075
 21
173.898
  0
LINE
  8
0
 10
8.41075
 20
173.898
 11
8.30553
 21
173.961
  0
LINE
  8
0
 10
8.30553
 20
173.961
 11
8.207
 21
174.034
  0
LINE
  8
0
 10
8.207
 20
174.034
 11
8.1161
 21
174.116
  0
LINE
  8
0
 10
8.1161
 20
174.116
 11
8.03372
 21
174.207
  0
LINE
  8
0
 10
8.03372
 20
174.207
 11
7.96066
 21
174.306
  0
LINE
  8
0
 10
7.96066
 20
174.306
 11
7.8976
 21
174.411
  0
LINE
  8
0
 10
7.8976
 20
174.411
 11
7.84514
 21
174.522
  0
LINE
  8
0
 10
7.84514
 20
174.522
 11
7.80382
 21
174.637
  0
LINE
  8
0
 10
7.80382
 20
174.637
 11
7.77402
 21
174.756
  0
LINE
  8
0
 10
7.77402
 20
174.756
 11
7.75601
 21
174.877
  0
LINE
  8
0
 10
7.75601
 20
174.877
 11
7.75
 21
175
  0
LINE
  8
0
 10
7.75
 20
175
 11
7.75601
 21
175.123
  0
LINE
  8
0
 10
7.75601
 20
175.123
 11
7.77402
 21
175.244
  0
LINE
  8
0
 10
7.77402
 20
175.244
 11
7.80382
 21
175.363
  0
LINE
  8
0
 10
7.80382
 20
175.363
 11
7.84514
 21
175.478
  0
LINE
  8
0
 10
7.84514
 20
175.478
 11
7.8976
 21
175.589
  0
LINE
  8
0
 10
7.8976
 20
175.589
 11
7.96066
 21
175.694
  0
LINE
  8
0
 10
7.96066
 20
175.694
 11
8.03372
 21
175.793
  0
LINE
  8
0
 10
8.03372
 20
175.793
 11
8.1161
 21
175.884
  0
LINE
  8
0
 10
8.1161
 20
175.884
 11
8.207
 21
175.966
  0
LINE
  8
0
 10
8.207
 20
175.966
 11
8.30553
 21
176.039
  0
LINE
  8
0
 10
8.30553
 20
176.039
 11
8.41075
 21
176.102
  0
LINE
  8
0
 10
8.41075
 20
176.102
 11
8.52164
 21
176.155
  0
LINE
  8
0
 10
8.52164
 20
176.155
 11
8.63713
 21
176.196
  0
LINE
  8
0
 10
8.63713
 20
176.196
 11
8.75613
 21
176.226
  0
LINE
  8
0
 10
8.75613
 20
176.226
 11
8.87747
 21
176.244
  0
LINE
  8
0
 10
8.87747
 20
176.244
 11
9
 21
176.25
  0
LINE
  8
0
 10
9
 20
176.25
 11
9.12251
 21
176.244
  0
LINE
  8
0
 10
9.12251
 20
176.244
 11
9.24385
 21
176.226
  0
LINE
  8
0
 10
9.24385
 20
176.226
 11
9.36285
 21
176.196
  0
LINE
  8
0
 10
9.36285
 20
176.196
 11
9.47835
 21
176.155
  0
LINE
  8
0
 10
9.47835
 20
176.155
 11
9.58923
 21
176.102
  0
LINE
  8
0
 10
9.58923
 20
176.102
 11
9.69446
 21
176.039
  0
LINE
  8
0
 10
9.69446
 20
176.039
 11
9.79298
 21
175.966
  0
LINE
  8
0
 10
9.79298
 20
175.966
 11
9.88388
 21
175.884
  0
LINE
  8
0
 10
9.88388
 20
175.884
 11
9.96626
 21
175.793
  0
LINE
  8
0
 10
9.96626
 20
175.793
 11
10.0393
 21
175.694
  0
LINE
  8
0
 10
10.0393
 20
175.694
 11
10.1024
 21
175.589
  0
LINE
  8
0
 10
10.1024
 20
175.589
 11
10.1548
 21
175.478
  0
LINE
  8
0
 10
10.1548
 20
175.478
 11
10.1962
 21
175.363
  0
LINE
  8
0
 10
10.1962
 20
175.363
 11
10.226
 21
175.244
  0
LINE
  8
0
 10
10.226
 20
175.244
 11
10.244
 21
175.123
  0
LINE
  8
0
 10
10.244
 20
175.123
 11
10.25
 21
175
  0
LINE
  8
0
 10
10.25
 20
175
 11
10.244
 21
174.877
  0
LINE
  8
0
 10
10.244
 20
174.877
 11
10.226
 21
174.756
  0
LINE
  8
0
 10
10.226
 20
174.756
 11
10.1962
 21
174.637
  0
LINE
  8
0
 10
10.1962
 20
174.637
 11
10.1548
 21
174.522
  0
LINE
  8
0
 10
10.1548
 20
174.522
 11
10.1024
 21
174.411
  0
LINE
  8
0
 10
10.1024
 20
174.411
 11
10.0393
 21
174.306
  0
LINE
  8
0
 10
10.0393
 20
174.306
 11
9.96626
 21
174.207
  0
LINE
  8
0
 10
9.96626
 20
174.207
 11
9.88388
 21
174.116
  0
LINE
  8
0
 10
9.88388
 20
174.116
 11
9.79298
 21
174.034
  0
LINE
  8
0
 10
9.79298
 20
174.034
 11
9.69446
 21
173.961
  0
LINE
  8
0
 10
9.69446
 20
173.961
 11
9.58923
 21
173.898
  0
LINE
  8
0
 10
9.58923
 20
173.898
 11
9.47835
 21
173.845
  0
LINE
  8
0
 10
9.47835
 20
173.845
 11
9.36285
 21
173.804
  0
LINE
  8
0
 10
9.36285
 20
173.804
 11
9.24385
 21
173.774
  0
LINE
  8
0
 10
9.24385
 20
173.774
 11
9.12251
 21
173.756
  0
LINE
  8
0
 10
9.12251
 20
173.756
 11
9
 21
173.75
  0
LINE
  8
0
 10
9
 20
173.75
 11
8.87747
 21
173.756
  0
LINE
  8
0
 10
8.87747
 20
8.75601
 11
8.75613
 21
8.77402
  0
LINE
  8
0
 10
8.75613
 20
8.77402
 11
8.63713
 21
8.80382
  0
LINE
  8
0
 10
8.63713
 20
8.80382
 11
8.52164
 21
8.84514
  0
LINE
  8
0
 10
8.52164
 20
8.84514
 11
8.41075
 21
8.8976
  0
LINE
  8
0
 10
8.41075
 20
8.8976
 11
8.30553
 21
8.96066
  0
LINE
  8
0
 10
8.30553
 20
8.96066
 11
8.207
 21
9.03372
  0
LINE
  8
0
 10
8.207
 20
9.03372
 11
8.1161
 21
9.1161
  0
LINE
  8
0
 10
8.1161
 20
9.1161
 11
8.03372
 21
9.207
  0
LINE
  8
0
 10
8.03372
 20
9.207
 11
7.96066
 21
9.30553
  0
LINE
  8
0
 10
7.96066
 20
9.30553
 11
7.8976
 21
9.41075
  0
LINE
  8
0
 10
7.8976
 20
9.41075
 11
7.84514
 21
9.52164
  0
LINE
  8
0
 10
7.84514
 20
9.52164
 11
7.80382
 21
9.63713
  0
LINE
  8
0
 10
7.80382
 20
9.63713
 11
7.77402
 21
9.75613
  0
LINE
  8
0
 10
7.77402
 20
9.75613
 11
7.75601
 21
9.87747
  0
LINE
  8
0
 10
7.75601
 20
9.87747
 11
7.75
 21
10
  0
LINE
  8
0
 10
7.75
 20
10
 11
7.75601
 21
10.1225
  0
LINE
  8
0
 10
7.75601
 20
10.1225
 11
7.77402
 21
10.2439
  0
LINE
  8
0
 10
7.77402
 20
10.2439
 11
7.80382
 21
10.3629
  0
LINE
  8
0
 10
7.80382
 20
10.3629
 11
7.84514
 21
10.4783
  0
LINE
  8
0
 10
7.84514
 20
10.4783
 11
7.8976
 21
10.5892
  0
LINE
  8
0
 10
7.8976
 20
10.5892
 11
7.96066
 21
10.6945
  0
LINE
  8
0
 10
7.96066
 20
10.6945
 11
8.03372
 21
10.793
  0
LINE
  8
0
 10
8.03372
 20
10.793
 11
8.1161
 21
10.8839
  0
LINE
  8
0
 10
8.1161
 20
10.8839
 11
8.207
 21
10.9663
  0
LINE
  8
0
 10
8.207
 20
10.9663
 11
8.30553
 21
11.0393
  0
LINE
  8
0
 10
8.30553
 20
11.0393
 11
8.41075
 21
11.1024
  0
LINE
  8
0
 10
8.41075
 20
11.1024
 11
8.52164
 21
11.1548
  0
LINE
  8
0
 10
8.52164
 20
11.1548
 11
8.63713
 21
11.1962
  0
LINE
  8
0
 10
8.63713
 20
11.1962
 11
8.75613
 21
11.226
  0
LINE
  8
0
 10
8.75613
 20
11.226
 11
8.87747
 21
11.244
  0
LINE
  8
0
 10
8.87747
 20
11.244
 11
9
 21
11.25
  0
LINE
  8
0
 10
9
 20
11.25
 11
9.12251
 21
11.244
  0
LINE
  8
0
 10
9.12251
 20
11.244
 11
9.24385
 21
11.226
  0
LINE
  8
0
 10
9.24385
 20
11.226
 11
9.36285
 21
11.1962
  0
LINE
  8
0
 10
9.36285
 20
11.1962
 11
9.47835
 21
11.1548
  0
LINE
  8
0
 10
9.47835
 20
11.1548
 11
9.58923
 21
11.1024
  0
LINE
  8
0
 10
9.58923
 20
11.1024
 11
9.69446
 21
11.0393
  0
LINE
  8
0
 10
9.69446
 20
11.0393
 11
9.79298
 21
10.9663
  0
LINE
  8
0
 10
9.79298
 20
10.9663
 11
9.88388
 21
10.8839
  0
LINE
  8
0
 10
9.88388
 20
10.8839
 11
9.96626
 21
10.793
  0
LINE
  8
0
 10
9.96626
 20
10.793
 11
10.0393
 21
10.6945
  0
LINE
  8
0
 10
10.0393
 20
10.6945
 11
10.1024
 21
10.5892
  0
LINE
  8
0
 10
10.1024
 20
10.5892
 11
10.1548
 21
10.4783
  0
LINE
  8
0
 10
10.1548
 20
10.4783
 11
10.1962
 21
10.3629
  0
LINE
  8
0
 10
10.1962
 20
10.3629
 11
10.226
 21
10.2439
  0
LINE
  8
0
 10
10.226
 20
10.2439
 11
10.244
 21
10.1225
  0
LINE
  8
0
 10
10.244
 20
10.1225
 11
10.25
 21
10
  0
LINE
  8
0
 10
10.25
 20
10
 11
10.244
 21
9.87747
  0
LINE
  8
0
 10
10.244
 20
9.87747
 11
10.226
 21
9.75613
  0
LINE
  8
0
 10
10.226
 20
9.75613
 11
10.1962
 21
9.63713
  0
LINE
  8
0
 10
10.1962
 20
9.63713
 11
10.1548
 21
9.52164
  0
LINE
  8
0
 10
10.1548
 20
9.52164
 11
10.1024
 21
9.41075
  0
LINE
  8
0
 10
10.1024
 20
9.41075
 11
10.0393
 21
9.30553
  0
LINE
  8
0
 10
10.0393
 20
9.30553
 11
9.96626
 21
9.207
  0
LINE
  8
0
 10
9.96626
 20
9.207
 11
9.88388
 21
9.1161
  0
LINE
  8
0
 10
9.88388
 20
9.1161
 11
9.79298
 21
9.03372
  0
LINE
  8
0
 10
9.79298
 20
9.03372
 11
9.69446
 21
8.96066
  0
LINE
  8
0
 10
9.69446
 20
8.96066
 11
9.58923
 21
8.8976
  0
LINE
  8
0
 10
9.58923
 20
8.8976
 11
9.47835
 21
8.84514
  0
LINE
  8
0
 10
9.47835
 20
8.84514
 11
9.36285
 21
8.80382
  0
LINE
  8
0
 10
9.36285
 20
8.80382
 11
9.24385
 21
8.77402
  0
LINE
  8
0
 10
9.24385
 20
8.77402
 11
9.12251
 21
8.75601
  0
LINE
  8
0
 10
9.12251
 20
8.75601
 11
9
 21
8.75
  0
LINE
  8
0
 10
9
 20
8.75
 11
8.87747
 21
8.75601
  0
ENDSEC
  0
SECTION
  2
OBJECTS
  0
DICTIONARY
  0
ENDSEC
  0
EOF
